>
 >
Nocturnal Command

Nocturnal Command Guitar Tabs

3 Inches Of Blood - Nocturnal Command chords, tabs, tablatures, lyrics

Guitar lessons | Add/correct | Request | Top 50 tabs Artists:  A B C D E F G H I J K L M N O P Q R S T U V W X Y Z 0-9

Nocturnal Command Guitar Tabs – 3 Inches Of Blood

CD, Sheet music, Poster

Do you like Nocturnal Command? Share with your friends now
Tabs
3 INCHES OF BLOOD
NOCTURNAL COMMAND
EADGBE

*=PALM MUTE


tab includes whole song w/both parts


0:00
L
-----------------------------------------------------------------------|
-----------------------------------------------------------------------|
-----------------------------------------------------------------------|
-----------------------------^------------------------------------^----|
*-*-*-3-*-*-----*-*-*-3-*-*-3-5-3---*-*-*-3-*-*-----*-*-*-3-*-*--3-5-3-|
5-3-5---5-3-5---5-3-5---5-3---------5-3-5---5-3-5---5-3-5---5-3--------|
R
----------------------------------------------------------------------|
----------------------------------------------------------------------|
-----------------------------^-----------------------------------^----|
----------------*-*-*-5-*-*-5-7-5---*-*-*-5-*-*-----*-*-*-5-*-*-5-7-5-|
----------------7-5-7---7-5---------7-5-7---7-5-7---7-5-7---7-5-------|
----------------------------------------------------------------------|

0:11
L
------------------------|
------------------------|
------------------------|
------------------------|
*-*-*-3-*-*-5-3-*-3-*-*-|
5-3-5---5-3-----5---5-3-|
R
------------------------|
------------------------|
*-*-*-5-*-*-7-5-*-5-*-*-|
7-5-7---7-5-----7---7-5-|
------------------------|
------------------------|


0:13
L
-------------------------------------------------------------------------|
-------------------------------------------------------------------------|
-------------------------------------------------------------------------|
-------------------------------------------------^-----------------------|
*-*-*-3-*-*----*-*-*-3-*-*-3-2-*----*-*-*-3-*-*-3-5-3-*-*-*-3-*-*-3-2-*-5|
5-3-5---5-3-5--5-3-5---5-3-----3-2--5-3-5---5-3-------5-3-5---5-3-----3--|
R
-------------------------------------------------------------------------|
-------------------------------------------------^-----------------------|
*-*-*-5-*-*----*-*-*-5-*-*-5-4-*----*-*-*-5-*-*-5-7-5-*-*-*-5-*-*-5-4-*-7|
7-5-7---7-5-7--7-5-7---7-5-----5-4--7-5-7---7-5-------7-5-7---7-5-----5--|
-------------------------------------------------------------------------|
-------------------------------------------------------------------------|

L
-------------------------------------------------------------------------|
-------------------------------------------------------------------------|
-------------------------------------------------------------------------|
-------------------------------------------------^-----------------------|
*-*-*-3-*-*----*-*-*-3-*-*-3-2-*----*-*-*-3-*-*-3-5-3-*-*-*-3-*-*-3-2-*-5|
5-3-5---5-3-5--5-3-5---5-3-----3-2--5-3-5---5-3-------5-3-5---5-3-----3--|
R
-------------------------------------------------------------------------|
-------------------------------------------------^-----------------------|
*-*-*-5-*-*----*-*-*-5-*-*-5-4-*----*-*-*-5-*-*-5-7-5-*-*-*-5-*-*-5-4-*-7|
7-5-7---7-5-7--7-5-7---7-5-----5-4--7-5-7---7-5-------7-5-7---7-5-----5--|
-------------------------------------------------------------------------|
-------------------------------------------------------------------------|

0:25

L
-----------------------------------------------------------------|
-----------------------------------------------------------------|
2-----2-------2-----2-------2-----2------------------------------|
2-***-2-5-2-5-2-***-2-5-2-5-2-***-2-5-2-5-*-*-*-5-*-*-7-5-*-5-*-*|
0-000-0-3-0-3-0-000-0-3-0-3-0-000-0-3-0-3-7-5-7---7-5-----7---7-5|
-----------------------------------------------------------------|
R
-----------------------------------------------------------------|
-----------------------------------------------------------------|
2-----------------------------------------*-*-*-5-*-*-7-5-*-5-*-*|
2-----------------------------------------7-5-7---7-5-----7---7-5|
0----------------------------------------------------------------|
-----------------------------------------------------------------|


L
------------------------------------------------------------|
------------------------------------------------------------|
22-----22-------22-----22-------22-----22-------------------|
22-***-22-5-2-5-22-***-22-5-2-5-22-***-22-5-2-5--2-2---2----|
00-000-00-3-0-3-00-000-00-3-0-3-00-000-00-3-0-3--3-3---3-5--|
---------------------------------------------------------3--|
R
------------------------------------------------------------|
------------------------------------------------------------|
22-----22-------22-----22-------22-----22--------2-2---2-2--|
22-***-22-5-3-0-22-***-22-5-3-0-22-***-22-5-3-0--2-2---3-3--|
00-000-00-------00-000-00-------00-000-00-------------------|
------------------------------------------------------------|

L
------------------------------------------------------------|
------------------------------------------------------------|
22-----22-------22-----22-------22-----22-------------------|
22-***-22-5-2-5-22-***-22-5-2-5-22-***-22-5-2-5--2-2---2----|
00-000-00-3-0-3-00-000-00-3-0-3-00-000-00-3-0-3--3-3---3-5--|
---------------------------------------------------------3--|
R
------------------------------------------------------------|
------------------------------------------------------------|
22-----22-------22-----22-------22-----22--------2-2---2-2--|
22-***-22-5-3-0-22-***-22-5-3-0-22-***-22-5-3-0--2-2---3-3--|
00-000-00-------00-000-00-------00-000-00-------------------|
------------------------------------------------------------|


0:45
L
-------------------------------------------------------------|
--------^----^----------^----^----------^----^---------------|
--------02-2-02-2-------02-2-02-2-------02-2-02-2------------|
2-2-***----------2-2-***---------2-2-***-----------2-2---2---|
0---000----------0---000---------0---000-----------3-3---3-5-|
-----------------------------------------------------------3-|
R
------------------------------------------------------------|
-------^----^----------^----^-----------^----^--------------|
--2----45-5-45-5--2----45-5-45-5--2-----45-5-45-5-2-2---2-2-|
2---***---------2---***---------2----***----------2-2---3-3-|
0---000---------0---000---------0----000--------------------|
------------------------------------------------------------|


L
-------------------------------------------------------------|
--------^----^----------^----^----------^----^---------------|
--------02-2-02-2-------02-2-02-2-------02-2-02-2------------|
2-2-***----------2-2-***---------2-2-***-----------2-2---2---|
0---000----------0---000---------0---000-----------3-3---3-5-|
-----------------------------------------------------------3-|
R
------------------------------------------------------------|
-------^----^----------^----^-----------^----^--------------|
--2----45-5-45-5--2----45-5-45-5--2-----45-5-45-5-2-2---2-2-|
2---***---------2---***---------2----***----------2-2---3-3-|
0---000---------0---000---------0----000--------------------|
------------------------------------------------------------|


0:57
L
-------------------------------------------------------------------------|
-------------------------------------------------------------------------|
-------------------------------------------------------------------------|
-------------------------------------------------^-----------------------|
*-*-*-3-*-*----*-*-*-3-*-*-3-2-*----*-*-*-3-*-*-3-5-3-*-*-*-3-*-*-3-2-*-5|
5-3-5---5-3-5--5-3-5---5-3-----3-2--5-3-5---5-3-------5-3-5---5-3-----3--|
R
-------------------------------------------------------------------------|
-------------------------------------------------^-----------------------|
*-*-*-5-*-*----*-*-*-5-*-*-5-4-*----*-*-*-5-*-*-5-7-5-*-*-*-5-*-*-5-4-*-7|
7-5-7---7-5-7--7-5-7---7-5-----5-4--7-5-7---7-5-------7-5-7---7-5-----5--|
-------------------------------------------------------------------------|
-------------------------------------------------------------------------|

L
-------------------------------------------------------------------------|
-------------------------------------------------------------------------|
-------------------------------------------------------------------------|
-------------------------------------------------^-----------------------|
*-*-*-3-*-*----*-*-*-3-*-*-3-2-*----*-*-*-3-*-*-3-5-3-*-*-*-3-*-*-3-2-*-5|
5-3-5---5-3-5--5-3-5---5-3-----3-2--5-3-5---5-3-------5-3-5---5-3-----3--|
R
-------------------------------------------------------------------------|
-------------------------------------------------^-----------------------|
*-*-*-5-*-*----*-*-*-5-*-*-5-4-*----*-*-*-5-*-*-5-7-5-*-*-*-5-*-*-5-4-*-7|
7-5-7---7-5-7--7-5-7---7-5-----5-4--7-5-7---7-5-------7-5-7---7-5-----5--|
-------------------------------------------------------------------------|
-------------------------------------------------------------------------|


1:10
L
-----------------------------------------------------------------|
-----------------------------------------------------------------|
2-----2-------2-----2-------2-----2------------------------------|
2-***-2-5-2-5-2-***-2-5-2-5-2-***-2-5-2-5-*-*-*-5-*-*-7-5-*-5-*-*|
0-000-0-3-0-3-0-000-0-3-0-3-0-000-0-3-0-3-7-5-7---7-5-----7---7-5|
-----------------------------------------------------------------|
R
-----------------------------------------------------------------|
-----------------------------------------------------------------|
2-----------------------------------------*-*-*-5-*-*-7-5-*-5-*-*|
2-----------------------------------------7-5-7---7-5-----7---7-5|
0----------------------------------------------------------------|
-----------------------------------------------------------------|


L
------------------------------------------------------------|
------------------------------------------------------------|
22-----22-------22-----22-------22-----22-------------------|
22-***-22-5-2-5-22-***-22-5-2-5-22-***-22-5-2-5--2-2---2----|
00-000-00-3-0-3-00-000-00-3-0-3-00-000-00-3-0-3--3-3---3-5--|
---------------------------------------------------------3--|
R
------------------------------------------------------------|
------------------------------------------------------------|
22-----22-------22-----22-------22-----22--------2-2---2-2--|
22-***-22-5-3-0-22-***-22-5-3-0-22-***-22-5-3-0--2-2---3-3--|
00-000-00-------00-000-00-------00-000-00-------------------|
------------------------------------------------------------|

L
-------------------------------------------------------------|
--------^----^----------^----^----------^----^---------------|
--------02-2-02-2-------02-2-02-2-------02-2-02-2------------|
2-2-***----------2-2-***---------2-2-***-----------2-2---2---|
0---000----------0---000---------0---000-----------3-3---3-5-|
-----------------------------------------------------------3-|
R
------------------------------------------------------------|
-------^----^----------^----^-----------^----^--------------|
--2----45-5-45-5--2----45-5-45-5--2-----45-5-45-5-2-2---2-2-|
2---***---------2---***---------2----***----------2-2---3-3-|
0---000---------0---000---------0----000--------------------|
------------------------------------------------------------|

1:30
B
---------------------------------------------------|
--------------------------_------------------------|
----------------_--------/ \--*-*-*-3-*-*----------|
---------------/ \--3---3-5-3-5-3-5---5-3-5-3-*-*--|
5---------5---3-5-3---------------------------5-3--|
----5-6-8------------------------------------------|

---------------------------------------------------------------|
---------------------------------------------------------------|
4-4-2-*-*-*-*-*-4-*-*-*-------------------------_--------------|
2-2---5-4-5-4-0-2-5-4-0-*-*---5----------------/ \--2-***-2-***|
------------------------3-2-*-3-5-*-*-*-*-*-*-2-3-2-0-000-0-000|
----------------------------3---3-5-3-2-0-2-3------------------|

---------------------------------------------------------------|
---------------------------------------------------------------|
4-4-2-*-*-*-*-*-4-*-*-*-------------------------_--------------|
2-2---5-4-5-4-0-2-5-4-0-*-*---5----------------/ \--2-***-2-***|
------------------------3-2-*-3-5-*-*-*-*-*-*-2-3-2-0-000-0-000|
----------------------------3---3-5-3-2-0-2-3------------------|

---------------------------------------------------------------|
---------------------------------------------------------------|
4-4-2-*-*-*-*-*-4-*-*-*-------------------------_--------------|
2-2---5-4-5-4-0-2-5-4-0-*-*---5----------------/ \--2-***-2-***|
------------------------3-2-*-3-5-*-*-*-*-*-*-2-3-2-0-000-0-000|
----------------------------3---3-5-3-2-0-2-3------------------|

---------------------------------------------------------------|
---------------------------------------------------------------|
4-4-2-*-*-*-*-*-4-*-*-*-------------------------_--------------|
2-2---5-4-5-4-0-2-5-4-0-*-*---5----------------/ \--2-***-2-***|
------------------------3-2-*-3-5-*-*-*-*-*-*-2-3-2-0-000-0-000|
----------------------------3---3-5-3-2-0-2-3------------------|


2:01
L
------------------------------------------------------------|
------------------------------------------------------------|
22-----22-------22-----22-------22-----22-------------------|
22-***-22-5-2-5-22-***-22-5-2-5-22-***-22-5-2-5--2-2---2----|
00-000-00-3-0-3-00-000-00-3-0-3-00-000-00-3-0-3--3-3---3-5--|
---------------------------------------------------------3--|
R
------------------------------------------------------------|
------------------------------------------------------------|
22-----22-------22-----22-------22-----22--------2-2---2-2--|
22-***-22-5-3-0-22-***-22-5-3-0-22-***-22-5-3-0--2-2---3-3--|
00-000-00-------00-000-00-------00-000-00-------------------|
------------------------------------------------------------|

L
------------------------------------------------------------|
------------------------------------------------------------|
22-----22-------22-----22-------22-----22-------------------|
22-***-22-5-2-5-22-***-22-5-2-5-22-***-22-5-2-5--2-2---2----|
00-000-00-3-0-3-00-000-00-3-0-3-00-000-00-3-0-3--3-3---3-5--|
---------------------------------------------------------3--|
R
------------------------------------------------------------|
------------------------------------------------------------|
22-----22-------22-----22-------22-----22--------2-2---2-2--|
22-***-22-5-3-0-22-***-22-5-3-0-22-***-22-5-3-0--2-2---3-3--|
00-000-00-------00-000-00-------00-000-00-------------------|
------------------------------------------------------------|


2:14
L
-------------------------------------------------------------|
--------^----^----------^----^----------^----^---------------|
--------02-2-02-2-------02-2-02-2-------02-2-02-2------------|
2-2-***----------2-2-***---------2-2-***-----------2-2---2---|
0---000----------0---000---------0---000-----------3-3---3-5-|
-----------------------------------------------------------3-|
R
------------------------------------------------------------|
-------^----^----------^----^-----------^----^--------------|
--2----45-5-45-5--2----45-5-45-5--2-----45-5-45-5-2-2---2-2-|
2---***---------2---***---------2----***----------2-2---3-3-|
0---000---------0---000---------0----000--------------------|
------------------------------------------------------------|

L
-------------------------------------------------------------|
--------^----^----------^----^----------^----^---------------|
--------02-2-02-2-------02-2-02-2-------02-2-02-2------------|
2-2-***----------2-2-***---------2-2-***-----------2-2---2---|
0---000----------0---000---------0---000-----------3-3---3-5-|
-----------------------------------------------------------3-|
R
------------------------------------------------------------|
-------^----^----------^----^-----------^----^--------------|
--2----45-5-45-5--2----45-5-45-5--2-----45-5-45-5-2-2---2-2-|
2---***---------2---***---------2----***----------2-2---3-3-|
0---000---------0---000---------0----000--------------------|
------------------------------------------------------------|


2:27
B
---------------------------------------------------|
--------------------------_------------------------|
----------------_--------/ \--*-*-*-3-*-*----------|
---------------/ \--3---3-5-3-5-3-5---5-3-5-3-*-*--|
5---------5---3-5-3---------------------------5-3--|
----5-6-8------------------------------------------|

---------------------------------------------------------------|
---------------------------------------------------------------|
4-4-2-*-*-*-*-*-4-*-*-*-------------------------_--------------|
2-2---5-4-5-4-0-2-5-4-0-*-*---5----------------/ \--2-***-2-***|
------------------------3-2-*-3-5-*-*-*-*-*-*-2-3-2-0-000-0-000|
----------------------------3---3-5-3-2-0-2-3------------------|

---------------------------------------------------------------|
---------------------------------------------------------------|
4-4-2-*-*-*-*-*-4-*-*-*-------------------------_--------------|
2-2---5-4-5-4-0-2-5-4-0-*-*---5----------------/ \--2-***-2-***|
------------------------3-2-*-3-5-*-*-*-*-*-*-2-3-2-0-000-0-000|
----------------------------3---3-5-3-2-0-2-3------------------|

---------------------------------------------------------------|
---------------------------------------------------------------|
4-4-2-*-*-*-*-*-4-*-*-*-------------------------_--------------|
2-2---5-4-5-4-0-2-5-4-0-*-*---5----------------/ \--2-***-2-***|
------------------------3-2-*-3-5-*-*-*-*-*-*-2-3-2-0-000-0-000|
----------------------------3---3-5-3-2-0-2-3------------------|

---------------------------------------------------------------|
---------------------------------------------------------------|
4-4-2-*-*-*-*-*-4-*-*-*-------------------------_--------------|
2-2---5-4-5-4-0-2-5-4-0-*-*---5----------------/ \--2-***-2-***|
------------------------3-2-*-3-5-*-*-*-*-*-*-2-3-2-0-000-0-000|
----------------------------3---3-5-3-2-0-2-3------------------|


2:59
L
------------------------------------------------------|
------------------------------------------------------|
------------------------------------------------------|
---/5----/7-----/9---/10------/5----/7-----/9---/10---|
------------------------9--------------------------9--|
-0----0-----0------0-------0----0-----0------0--------|
R
-----------------------------------------------------|
-----------------------------------------------------|
-----------------------------------------------------|
--/2----/4-----/5----/7------/2----/4-----/5----/7---|
-----------------------5--------------------------5--|
-0----0-----0------0-------0----0-----0------0-------|

3:12
L
------------------------------------------------|
------------------------------------------------|
------******------******------******------------|
------555555------777777------999999-------10---|
******------******------******-------******---9-|
000000------000000------000000-------000000-----|
R
-----------------------------------------------|
-----------------------------------------------|
------******------******------******-----------|
------222222------444444------555555-------7---|
******------******------******-------******--5-|
000000------000000------000000-------000000----|

L
------------------------------------------------|
------------------------------------------------|
------******------******------******------------|
------555555------777777------999999-------10---|
******------******------******-------******---9-|
000000------000000------000000-------000000-----|
R
-----------------------------------------------|
-----------------------------------------------|
------******------******------******-----------|
------222222------444444------555555-------7---|
******------******------******-------******--5-|
000000------000000------000000-------000000----|


3:24
L
--------------------------------------------|
--------------------------------------------|
--------------------------------------------|
--------------------------------------------|
*-*-*-3-*-*-5-3-*-3-*-*-*-*-*-3-*-*-5-3-*-3-|
5-3-5---5-3-----5---5-3-5-3-5---5-3-----5---|
R
---------------------------------------------|
---------------------------------------------|
*-*-*-5-*-*-7-5-*-5-*-*-*-*-*-5-*-*-7-5-*-5--|
7-5-7---7-5-----7---7-5-7-5-7---7-5-----7----|
---------------------------------------------|
---------------------------------------------|
L
--------------------------------------------|
--------------------------------------------|
--------------------------------------------|
--------------------------------------------|
*-*-*-3-*-*-5-3-*-3-*-*-*-*-*-3-*-*-5-3-*---|
5-3-5---5-3-----5---5-3-5-3-5---5-3-----5-3-|
R
---------------------------------------------|
---------------------------------------------|
*-*-*-5-*-*-7-5-*-5-*-*-*-*-*-5-*-*-7-5-*----|
7-5-7---7-5-----7---7-5-7-5-7---7-5-----7-5--|
---------------------------------------------|
---------------------------------------------|

L
--------------------------------------------|
--------------------------------------------|
--------------------------------------------|
--------------------------------------------|
*-*-*-3-*-*-5-3-*-3-*-*-*-*-*-3-*-*-5-3-*-3-|
5-3-5---5-3-----5---5-3-5-3-5---5-3-----5---|
R
---------------------------------------------|
---------------------------------------------|
*-*-*-5-*-*-7-5-*-5-*-*-*-*-*-5-*-*-7-5-*-5--|
7-5-7---7-5-----7---7-5-7-5-7---7-5-----7----|
---------------------------------------------|
---------------------------------------------|
L
--------------------------------------------|
--------------------------------------------|
--------------------------------------------|
--------------------------------------------|
*-*-*-3-*-*-5-3-*-3-*-*-*-*-*-3-*-*-5-3-*---|
5-3-5---5-3-----5---5-3-5-3-5---5-3-----5-3-|
R
---------------------------------------------|
---------------------------------------------|
*-*-*-5-*-*-7-5-*-5-*-*-*-*-*-5-*-*-7-5-*----|
7-5-7---7-5-----7---7-5-7-5-7---7-5-----7-5--|
---------------------------------------------|
---------------------------------------------|


3:37
L
--------------------------------------------|
--------------------------------------------|
--------------------------------------------|
*-*-*-5-*-*-7-5-*-5-*-*-*-*-*-5-*-*-7-5-*-5-|
7-5-7---7-5-----7---7-5-7-5-7---7-5-----7---|
--------------------------------------------|
R
--------------------------------------------|
--------------------------------------------|
--------------------------------------------|
--------------------------------------------|
*-*-*-3-*-*-5-3-*-3-*-*-*-*-*-3-*-*-5-3-*-3-|
5-3-5---5-3-----5---5-3-5-3-5---5-3-----5---|


L
--------------------------------------------|
--------------------------------------------|
--------------------------------------------|
*-*-*-5-*-*-7-5-*-5-*-*-*-*-*-5-*-*-7-5-*---|
7-5-7---7-5-----7---7-5-7-5-7---7-5-----7-5-|
--------------------------------------------|
R
--------------------------------------------|
--------------------------------------------|
--------------------------------------------|
--------------------------------------------|
*-*-*-3-*-*-5-3-*-3-*-*-*-*-*-3-*-*-5-3-*---|
5-3-5---5-3-----5---5-3-5-3-5---5-3-----5-3-|


3:44
L
-----------------------------------------------------------------|
-----------------------------------------------------------------|
-*-*--*--12--*-*--14-12--*-12--*--*--*-*--*--12--*-*--14-12--*-12|
14-12-14----14-12-------14----14-12-14-12-14----14-12-------14---|
-----------------------------------------------------------------|
-----------------------------------------------------------------|
R
---------------------------------------------|
---------------------------------------------|
*-*-*-5-*-*-7-5-*-5-*-*-*-*-*-5-*-*-7-5-*-5--|
7-5-7---7-5-----7---7-5-7-5-7---7-5-----7----|
---------------------------------------------|
---------------------------------------------|

L
-----------------------------------------------------------------|
-----------------------------------------------------------------|
-*-*--*--12--*-*--14-12--*-12--*--*--*-*--*--12--*-*--14-12--*---|
14-12-14----14-12-------14----14-12-14-12-14----14-12-------14-12|
-----------------------------------------------------------------|
-----------------------------------------------------------------|
R
-*-*-*-7-*-*-8-7-*-7-*-*-*-*-*-7-*-*-8-7-*------|
-8-7-8---8-7-----8---8-7-8-7-8---8-7-----8-7----|
------------------------------------------------|
------------------------------------------------|
------------------------------------------------|
------------------------------------------------|


3:50
B
--------------------------------------------------------------------|
----------------------_---------------------------------------------|
-------------_-------/ \--*-*-*-3-*-*-5-3-*-3-*-*-*-*-*-3-*-*-------|
------------/ \--3--3-5-3-5-3-5---5-3-----5---5-3-5-3-5---5-3-5-3---|
5-------5--3-5-3-------------------------------------------------5-3|
---5-6-8------------------------------------------------------------|

---------------------------------------------------------------|
---------------------------------------------------------------|
4-4-2-*-*-*-*-*-4-*-*-*-------------------------_--------------|
2-2---5-4-5-4-0-2-5-4-0-*-*---5----------------/ \--2-***-2-***|
------------------------3-2-*-3-5-*-*-*-*-*-*-2-3-2-0-000-0-000|
----------------------------3---3-5-3-2-0-2-3------------------|

---------------------------------------------------------------|
---------------------------------------------------------------|
4-4-2-*-*-*-*-*-4-*-*-*-------------------------_--------------|
2-2---5-4-5-4-0-2-5-4-0-*-*---5----------------/ \--2-***-2-***|
------------------------3-2-*-3-5-*-*-*-*-*-*-2-3-2-0-000-0-000|
----------------------------3---3-5-3-2-0-2-3------------------|

---------------------------------------------------------------|
---------------------------------------------------------------|
4-4-2-*-*-*-*-*-4-*-*-*-------------------------_--------------|
2-2---5-4-5-4-0-2-5-4-0-*-*---5----------------/ \--2-***-2-***|
------------------------3-2-*-3-5-*-*-*-*-*-*-2-3-2-0-000-0-000|
----------------------------3---3-5-3-2-0-2-3------------------|

---------------------------------------------------------------|
---------------------------------------------------------------|
4-4-2-*-*-*-*-*-4-*-*-*-------------------------_--------------|
2-2---5-4-5-4-0-2-5-4-0-*-*---5----------------/ \--2-***-2-***|
------------------------3-2-*-3-5-*-*-*-*-*-*-2-3-2-0-000-0-000|
----------------------------3---3-5-3-2-0-2-3------------------|


4:24

SOLO
------------------------------------------------10---------------|
------*--*--*--*--*-------*--*--------------------13-12-10-12-13-|
-----14-12-11-12-11------12-11--*--*---------/12-----------------|
/14----------------12--14------12-11-*--*-10---------------------|
------------------------------------12-10------------------------|
-----------------------------------------------------------------|

-10-12-10-------------------------------------|
----------10--10-10-10-10-10--10-10-10-10-----|
----------------------------------------------|
----------------------------------------------|
----------------------------------------------|
----------------------------------------------|
RYTHM
---------------------------------------------------------------|
---------------------------------------------------------------|
4-4-2-*-*-*-*-*-4-*-*-*-------------------------_--------------|
2-2---5-4-5-4-0-2-5-4-0-*-*---5----------------/ \--2-***-2-***|
------------------------3-2-*-3-5-*-*-*-*-*-*-2-3-2-0-000-0-000|
----------------------------3---3-5-3-2-0-2-3------------------|

4:30
SOLO
------------------------------------------------10---------------|
------*--*--*--*--*-------*--*--------------------13-12-10-12-13-|
-----14-12-11-12-11------12-11--*--*---------/12-----------------|
/14----------------12--14------12-11-*--*-10---------------------|
------------------------------------12-10------------------------|
-----------------------------------------------------------------|

-10-12-10---------|
----------10------|
------------------|
------------------|
------------------|
------------------|
RYTHM
------------------------------------------------------|
------------------------------------------------------|
4-4-2-*-*-*-*-*-4-*-*-*-------------------------_-----|
2-2---5-4-5-4-0-2-5-4-0-*-*---5----------------/ \--2-|
------------------------3-2-*-3-5-*-*-*-*-*-*-2-3-2-0-|
----------------------------3---3-5-3-2-0-2-3---------|


4:36
L
-------------------------------------------------------------------------|
-------------------------------------------------------------------------|
-------------------------------------------------------------------------|
-------------------------------------------------^-----------------------|
*-*-*-3-*-*----*-*-*-3-*-*-3-2-*----*-*-*-3-*-*-3-5-3-*-*-*-3-*-*-3-2-*-5|
5-3-5---5-3-5--5-3-5---5-3-----3-2--5-3-5---5-3-------5-3-5---5-3-----3--|
R
-------------------------------------------------------------------------|
-------------------------------------------------^-----------------------|
*-*-*-5-*-*----*-*-*-5-*-*-5-4-*----*-*-*-5-*-*-5-7-5-*-*-*-5-*-*-5-4-*-7|
7-5-7---7-5-7--7-5-7---7-5-----5-4--7-5-7---7-5-------7-5-7---7-5-----5--|
-------------------------------------------------------------------------|
-------------------------------------------------------------------------|

L
-------------------------------------------------------------------------|
-------------------------------------------------------------------------|
-------------------------------------------------------------------------|
-------------------------------------------------^-----------------------|
*-*-*-3-*-*----*-*-*-3-*-*-3-2-*----*-*-*-3-*-*-3-5-3-*-*-*-3-*-*-3-2-*-5|
5-3-5---5-3-5--5-3-5---5-3-----3-2--5-3-5---5-3-------5-3-5---5-3-----3--|
R
-------------------------------------------------------------------------|
-------------------------------------------------^-----------------------|
*-*-*-5-*-*----*-*-*-5-*-*-5-4-*----*-*-*-5-*-*-5-7-5-*-*-*-5-*-*-5-4-*-7|
7-5-7---7-5-7--7-5-7---7-5-----5-4--7-5-7---7-5-------7-5-7---7-5-----5--|
-------------------------------------------------------------------------|
-------------------------------------------------------------------------|

L
-------------------------------------------------------------------------|
-------------------------------------------------------------------------|
-------------------------------------------------------------------------|
-------------------------------------------------^-----------------------|
*-*-*-3-*-*----*-*-*-3-*-*-3-2-*----*-*-*-3-*-*-3-5-3-*-*-*-3-*-*-3-2-*-5|
5-3-5---5-3-5--5-3-5---5-3-----3-2--5-3-5---5-3-------5-3-5---5-3-----3--|
R
-------------------------------------------------------------------------|
-------------------------------------------------^-----------------------|
*-*-*-5-*-*----*-*-*-5-*-*-5-4-*----*-*-*-5-*-*-5-7-5-*-*-*-5-*-*-5-4-*-7|
7-5-7---7-5-7--7-5-7---7-5-----5-4--7-5-7---7-5-------7-5-7---7-5-----5--|
-------------------------------------------------------------------------|
-------------------------------------------------------------------------|

L
------------------------------------------------------|
------------------------------------------------------|
------------------------------------------------------|
-------------------------------------------------^----|
*-*-*-3-*-*----*-*-*-3-*-*-3-2-*----*-*-*-3-*-*-3-5-3-|
5-3-5---5-3-5--5-3-5---5-3-----3-2--5-3-5---5-3-------|
R
------------------------------------------------------|
-------------------------------------------------^----|
*-*-*-5-*-*----*-*-*-5-*-*-5-4-*----*-*-*-5-*-*-5-7-5-|
7-5-7---7-5-7--7-5-7---7-5-----5-4--7-5-7---7-5-------|
------------------------------------------------------|
------------------------------------------------------|





Comments


Popular 3 Inches Of Blood tabs & chords
Axes Of Evil Bass Tabs
Deadly Sinners Bass Tabs
Night Maruaders Tabs
Quest For The Manticore Tabs
Rejoice In The Fire Of Mans Demise Tabs
Ride Dark Horse Ride Intro Tabs
Through The Horned Gate Tabs
Trial Of Champions Tabs
Trial Of Champions 3 Tabs
Trial Of Champions Intro Tabs


Song lyrics



↑ Back to top | Tablatures and chords are parodies/interpretations of the original songs. You may use it for private study, scholarship, research or language learning purposes only
© 2014 AZChords.com Contact us | Privacy policy | DMCA | Add/correct tabs | Request tabs | Top 50 tabs