>
 >
Night Maruaders

Night Maruaders Guitar Tabs

3 Inches Of Blood - Night Maruaders chords, tabs, tablatures, lyrics

Guitar lessons | Add/correct | Request | Top 50 tabs Artists:  A B C D E F G H I J K L M N O P Q R S T U V W X Y Z 0-9

Night Maruaders Guitar Tabs – 3 Inches Of Blood

CD, Sheet music, Poster

Do you like Night Maruaders? Share with your friends now
Tabs
sl=slide
x= palm mute
p= pull off
h= hammer on

Donít know the whole song but these are the main riffs

Intro
E-------------------------------------------------|
B-------------------------------------------------|
G-------------------------------------------------|
D-7-777-777-777-777-777-777-777-5sl7--7--7--7-9-9-|  x1
A-5-555-555-555-555-555-555-555-3sl5--5--5--5-7-7-|
D-------------------------------------------------|
    xxx xxx xxx xxx xxx xxx xxx

Riff 1
x2
E-------------------------------------------------------|
B-------------------------------------------------------|
G-----------------------------------------------75-5----|
D-5sl7-7-777-777-77-10-9-10-7--5sl7-7-777-777-77--7-75--|
A-3sl5-5-555-555-55-8--7--8--5-3sl5-5-555-555-55--------|
D-------------------------------------------------------|
         xxx xxx xx                   xxx xxx xx

E---------------------------------------------|
B---------------------------------------------|
G---------------------------------------------|
D-5sl7-7-777-777-77-10-9-10-5--------------30-|
A-3sl5-5-555-555-55--8-7--8-3-10-0----10-03---|
D-------------------------------5-535---5-----|
       x xxx xxx xx
x1
E----------------------------------------------------|
B----------------------------------------------------|
G---------------------------------------------97-7---|
D-9-9-999-999-99-13-11-13-9-7sl9-9-999-999-99---9-97-|
A-7-7-777-777-77-10-9--10-7-5sl7-7-777-777-77--------|
D----------------------------------------------------|
    x xxx xxx xx                 x xxx xxx xx

E---------------------------------------------|
B---------------------------------------------|
G---------------------------------------------|
D-7sl9-9-999-999-99-12-11-12-9------------52--|
A-5sl7-7-777-777-77-10-9--10-7-32020-32025----|
D-----------------------------------5---------|
         x x xxx xxx xx

Riff 2

E----------------------------------------------|
B----------------------------------------------|
G----------------------------------------------|             x4
D-2-----------------------7-9------------------|
A-2----0-2----5-7----10-7----------------------|
D-2--------------------------------------------|

Riff 3 x4

E--------------------------------|
B--------------------------------|
G--------------------------------|            x3
D-9---9-9-9---9-9-5-4-5-7-9------|
A-7---7-7-7---7-7-3-2-5-5-7------|
D---------------------5----------|
      x x     x x

E------------------------------|
B------------------------------|
G------------------------------|
D-9---9-9-9---9----------------|       x1
A-7---7-7-7---7----3-2-0-5-3-2-|
D------------------------------|
      x x     x

Riff 4 x2

E-------------------------------------|
B-------------------------------------|
G-------------------------------------|
D-7----------7-------9-------10-7-9-5-|
A-7-------7p5-----7p5-----7p5---------|
D-7---77------------------------------|
      xx


Riff 3 x2

Riff 5 x4

E---------------------------------|
B---------------------------------|
G---------------------------------|
D-0-----4-----5-----5h7p5-4-5-4---|
A-------------------------------7-|
D---------------------------------|

Riff 6

E------------------------------------|
B------------------------------------|
G------------------------------------|
D-9-999-999-999-999-999-999-99-11-13-|
A-7-777-777-777-777-777-777-77-9--10-|
D------------------------------------|
    xx  xx  xx  xx  xx  xx  xx

Then the solo. Donít know that





Comments


Popular 3 Inches Of Blood tabs & chords
Deadly Sinners 1 Bass Tabs
Assassins Of The Light Tabs
Bloody Screams Tabs
Deadly Sinners 1 Tabs
Fear On The Bridge Tabs
Night Marauders Tabs
Nocturnal Command Tabs
Revenge Is A Vulture Intro Tabs
Through The Horned Gate Tabs
Trial Of Champions Intro Tabs


Song lyrics



↑ Back to top | Tablatures and chords are parodies/interpretations of the original songs. You may use it for private study, scholarship, research or language learning purposes only
© 2014 AZChords.com Contact us | Privacy policy | DMCA | Add/correct tabs | Request tabs | Top 50 tabs