» » »

3 Inches Of Blood, Night Marauders Tabs (ver.1)

Artists:  A B C D E F G H I J K L M N O P Q R S T U V W X Y Z # 

Night Marauders Tabs (ver.1)

3 Inches Of Blood Tabs
 Rating:
3.6/5 (7 votes)
Night Marauders lessons Tabs too difficult? Try these video lessons and learn fast
                3 Inches Of Blood
Fire Up The Blades

EADGBe

if you want to tab forest king, through the horned gates, or the goatriders horde
they are standard tuning

i'll be working on this till i finish so be patience

. - Palm Mute
h - Hammer-On
p - Pull-Off
~ - Let Ring
/ - Slide
b - Bend
r - Release
PH - Pinch Harmonic
% - Play Previous


0:03  gtr.1
|---------------------------------------------------------|
|---------------------------------------------------------|
|---------------------------------------------------------|
|-5/7------------------------------------7--7--7--10-10\--|
|-3/5--555-555-555-555-555-555-555-3/555-5--5--5--8--8\---|
|---------------------------------------------------------|
|      ... ... ... ... ... ... ... . ...
| gtr. 2
|---------------------------------------------------------|
|---------------------------------------------------------|
|---------------------------------------------------------|
|-5/7------------------------------------7--7--7--10-10\--|
|-3/5------------------------------------5--5--5--8--8----|
|---------------------------------------------------------|


0:07
|--------------------------------------------------------|
|--------------------------------------------------------|
|--------------------------------------------------------|
|-5/7--------------3-2---3-------------------------------|
|-3/5--555-555-555----------3----------------------------|
|--------------------------------------------------------|
|      ... ... ...
|
|--------------------------------------------------------|
|--------------------------------------------------------|
|--------------------------------------------------------|
|-5/7--------------3-2---3-------------------------------|
|-3/5--555-555-555----------3----------------------------|
|--------------------------------------------------------|
       ... ... ...

0:10
|-----------------------------------|
|-----------------------------------|
|-----------------------------------|
|-5/7--------------12-10----10------|
|-3/5--555-555-555-------12----10-8-|
|-----------------------------------|
|      ... ... ...
|
|-----------------------------------|
|-----------------------------------|
|-----------------------------------|
|-5/7--------------12-10----10------|
|-3/5--555-555-555-------12----10-8-|
|-----------------------------------|
       ... ... ...

0:12
|--------------------------------------------------------|
|--------------------------------------------------------|
|--------------------------------------------------------|
|-5/7--------------3-2---3-------------------------------|
|-3/5--555-555-555----------3----------------------------|
|--------------------------------------------------------|
|      ... ... ...
|
|--------------------------------------------------------|
|--------------------------------------------------------|
|--------------------------------------------------------|
|-5/7--------------3-2---3-------------------------------|
|-3/5--555-555-555----------3----------------------------|
|--------------------------------------------------------|
       ... ... ... 

0:14
|-------------------------------------------------------|
|-------------------------------------------------------|
|-------------------------------------------------------|
|----------------------------3--------------------------|
|-0-1-0-1-0-1-0-3--1-0-1-3-5---5------------------------|
|-------------------------------------------------------|
|   . . . . . .    . . .
|
|-------------------------------------------------------|
|-------------------------------------------------------|
|-------------------------------------------------------|
|----------------------------3--------------------------|
|-0-1-0-1-0-1-0-3--1-0-1-3-5---5------------------------|
|-------------------------------------------------------|
    . . . . . .    . . . 

0:16
|--------------------------------------------------------|
|--------------------------------------------------------|
|--------------------------------------------------------|
|-5/7--------------3-2---3-------------------------------|
|-3/5--555-555-555----------3----------------------------|
|--------------------------------------------------------|
|      ... ... ...
|
|--------------------------------------------------------|
|--------------------------------------------------------|
|--------------------------------------------------------|
|-5/7--------------3-2---3-------------------------------|
|-3/5--555-555-555----------3----------------------------|
|--------------------------------------------------------|
       ... ... ... 

0:18
|-----------------------------------|
|-----------------------------------|
|-----------------------------------|
|-5/7--------------12-10----10------|
|-3/5--555-555-555-------12----10-8-|
|-----------------------------------|
|      ... ... ...
|
|-----------------------------------|
|-----------------------------------|
|-----------------------------------|
|-5/7--------------12-10----10------|
|-3/5--555-555-555-------12----10-8-|
|-----------------------------------|
       ... ... ...

0:21
|--------------------------------------------------------|
|--------------------------------------------------------|
|--------------------------------------------------------|
|-5/7--------------3-2---3-------------------------------|
|-3/5--555-555-555----------3----------------------------|
|--------------------------------------------------------|
|      ... ... ...
|
|--------------------------------------------------------|
|--------------------------------------------------------|
|--------------------------------------------------------|
|-5/7--------------3-2---3-------------------------------|
|-3/5--555-555-555----------3----------------------------|
|--------------------------------------------------------|
       ... ... ... 

0:23
|-------------------------------------------------------|
|-------------------------------------------------------|
|-------------------------------------------------------|
|------------------------5-7-9--------------------------|
|-0-1-0-1-0-1-0-3--1-0-1-3-5-7--------------------------|
|-------------------------------------------------------|
|   . . . . . .    . . .
|
|-------------------------------------------------------|
|-------------------------------------------------------|
|-------------------------------------------------------|
|------------------------5-7-9--------------------------|
|-0-1-0-1-0-1-0-3--1-0-1-3-5-7--------------------------|
|-------------------------------------------------------|
    . . . . . .    . . . 

0:25
|-------------------------------------------------------|
|-------------------------------------------------------|
|-------------------------------------------------------|
|--------------9p7---9-7--------------------------------|
|-777-777-777-------------------------------------------|
|-------------------------------------------------------|
| ... ... ...
|
|-------------------------------------------------------|
|-------------------------------------------------------|
|-------------------------------------------------------|
|--------------5-4-2-5-2--------------------------------|
|-777-777-777-------------------------------------------|
|-------------------------------------------------------|
  ... ... ...

0:28
|-------------------------------------------------------|
|-------------------------------------------------------|
|------------------14-12----12--------------------------|
|-7/9--------------------14----14-12--------------------|
|-5/7-777-777-777---------------------------------------|
|-------------------------------------------------------|
|     ... ... ...
|
|-------------------------------------------------------|
|-------------------------------------------------------|
|-------------------------------------------------------|
|-7/9--------------14-12----12--------------------------|
|-5/7-777-777-777--------14----14-12--------------------|
|-------------------------------------------------------|
      ... ... ...

0:30
|-------------------------------------------------------|
|-------------------------------------------------------|
|-------------------------------------------------------|
|-7/9--------------9p7---9-7----------------------------|
|-5/7-777-777-777---------------------------------------|
|-------------------------------------------------------|
|     ... ... ...
|
|-------------------------------------------------------|
|-------------------------------------------------------|
|-------------------------------------------------------|
|-7/9--------------5-4-2-5-2----------------------------|
|-5/7-777-777-777---------------------------------------|
|-------------------------------------------------------|
      ... ... ...

0:32
|-------------------------------------------------------|
|-------------------------------------------------------|
|-----------------------------0-------------------------|
|-0---------------0-------0-2---2~~~~~~~~~~~~~~~~~~-----|
|---3-2-3-2-3-2-3---3-2-3-------------------------------|
|-------------------------------------------------------|
|   . . . . . . .   . . .
|
|-------------------------------------------------------|
|-------------------------------------------------------|
|-----------------------------0-------------------------|
|-0---------------0-------0-2---2~~~~~~~~~~~~~~~~~~-----|
|---3-2-3-2-3-2-3---3-2-3-------------------------------|
|-------------------------------------------------------|
    . . . . . . .   . . .

0:37                              0:44
|----|-------------------|---|---|------------------|
|----|-------------------|---|---|------------------|
|----|-----------0---0-2-|---|---|------------------|
|----|------0-2----2-----|-%-|-%-|------0-2--5-7-9--|
|-5\-|-0-1---------------|---|---|-0-1-------3-5-7--|
|----|-------------------|---|---|------------------|
|
|
|----|-------------------|---|---|------------------|
|----|-------------------|---|---|------------------|
|----|-----------0---0-2-|---|---|------------------|
|-5\-|------0-2----2-----|-%-|-%-|------0-2--5-7-9--|
|----|-0-1---------------|---|---|-0-1-------3-5-7--|
|----|-------------------|---|---|------------------|


0:46
|---------------------|---|---|----------------------|
|---------------------|---|---|----------------------|
|---------------------|---|---|----------------------|
|-----9-----5-4---7-9-|-%-|-%-|-----9----------------|
|-----7-----3-2-5-5-7-|---|---|-----7---3-2-0--5-3-2-|
|-0-0---0-0-----3-----|---|---|-0-0---0--------------|
| . .   . .                     . .   .
|
|---------------------|---|---|----------------------|
|---------------------|---|---|----------------------|
|---------------------|---|---|----------------------|
|-----9-----5-4---7-9-|-%-|-%-|-----9----------------|
|-----7-----3-2-5-5-7-|---|---|-----7---3-2-0--5-3-2-|
|-0-0---0-0-----3-----|---|---|-0-0---0--------------|
| . .   . .                     . .   .


0:55
|-------------------------------------------------------|
|-------------------------------------------------------|
|-------------------------------------------------------|
|-----------7-5-4--5-4-2--------------------------------|
|-----5--7----------------------------------------------|
|--7----------------------------------------------------|
|
|
|-------------------------------------------------------|
|-------------------------------------------------------|
|-------------------------------------------------------|
|-----4--5--7-5-4--5-4-2--------------------------------|
|--5----------------------------------------------------|
|-------------------------------------------------------|
            
Submit corrections

comments powered by Disqus
↑ Back to top | 3 Inches Of Blood Tabs for Night Marauders. Lyrics for acoustic guitar and electric guitar. Tablatures and chords are parodies/interpretations of the original songs. You may use it for private study, scholarship, research or language learning purposes only