» » »

3 Inches Of Blood, God Of The Cold White Silence Tabs (ver.2)

Artists:  A B C D E F G H I J K L M N O P Q R S T U V W X Y Z # 

God Of The Cold White Silence Tabs (ver.2)

3 Inches Of Blood Tabs
 Rating:
4.3/5 (6 votes)
God Of The Cold White Silence lessons Tabs too difficult? Try these video lessons and learn fast
1
                Band:3 INCHES OF BLOOD
ALBUM:FIRE UP THE BLADES

Tuning:STANDARD I SUPPOSE, I JUST TUNED TO THE SONG

 iNTRO;
  g.1
e|--------------------------------------------------------------------------|
B|--------------------------------------------------------------------------|
G|--------------------------------------------------------------------------|
D|-------------------------------------------3------------------------------|
A|-------------------------------------------3------------------------------|
E|-------------------------------------------1------------------------------|
 |g.2
e|-PM.........---PM.....---PM.........---PM.---------------------------------|
B|---------------------------------------------------------------------------|
G|---------------------------------------------------------------------------|
D|-------------7---------9-------------7-------------------------------------|
A|-7-777-8-7-8---8-7-8-7---7-777-8-7-8---8-7-8-------------------------------|
E|---------------------------------------------------------------------------|

  g.1
e|--------------------------------------------------------------------------|
B|--------------------------------------------------------------------------|
G|--------------------------------------------------------------------------|
D|-2-----------------------X\-----------------------------------------------|
A|-2-----------------------X\PICKSLIDE--------------------------------------|
E|-0-----------------------X\-----------------------------------------------|
 |g.2
e|-PM.........---PM.....---PM.........---PM.---------------------------------|
B|---------------------------------------------------------------------------|
G|---------------------------------------------------------------------------|
D|-------------7---------9-------------7-------------------------------------|
A|-7-777-8-7-8---8-7-8-7---7-777-8-7-8---8-7-8\------------------------------|
E|---------------------------------------------------------------------------|

  VERSE "A", GUITARS 1+2, (pLAY 4 TIMES)
e|-PM.........---PM.....---PM.........---PM.---------------------------------|
B|---------------------------------------------------------------------------|
G|---------------------------------------------------------------------------|
D|---------------------------------------------------------------------------|
A|-------------0---------2-------------0-----3-------------------------------|
E|-0-000-1-0-1---1-0-1-0---0-000-1-0-1---1-0-1-------------------------------|

 vERSE "b" (PLAY 2 TIMES)
  G.1
e|--------------------------------------------------------------------------|
B|--------------------------------------------------------------------------|
G|--------------------------------------------------------------------------|
D|--------------------------------------------------------------------------|
A|-------------0---------2-------------0------------------------------------|
E|-0-000-1-0-1---1-0-1-0---0-000-1-0-1---1-0-1------------------------------|
 |g.2
e|--------------------------------------------------------------------------|
B|--------------------------------------------------------------------------|
G|--------------------------------------------------------------------------|
D|-------------7---------9-------------7------------------------------------|
A|-7-777-8-7-8---8-7-8-7---7-777-8-7-8---8-7-8------------------------------|
E|--------------------------------------------------------------------------|

  BRIDGE"A"
  G.1
e|--------------------------------------------------------------------------|
B|--------------------------------------------------------------------------|
G|-555555555555-------------------------------------------------------------|
D|-333333333333-------------------------------------------------------------|
A|-------------2222222222220000000000003------------------------------------|
E|--------------------------------------------------------------------------|
 |G.2
e|--------------------------------------------------------------------------|
B|--------------------------------------------------------------------------|
G|-10-----------------------------------------------------------------------|
D|-10-(37-TIMES)------------------------------------------------------------|
A|-8------------------------------------------------------------------------|
E|--------------------------------------------------------------------------|

THEN PLAY VERSE"A" AGAIN

THEN WE HAVE BRIDGE "B"
  G.1
e|--------------------------------------------------------------------------|
B|--------------------------------------------------------------------------|
G|-555555555555-------------------------------------------------------------|
D|-333333333333-------------------------------------------------------------|
A|-------------222222222222000000000000333333333333-------------------------|
E|--------------------------------------------------------------------------|
 |G.2
e|--------------------------------------------------------------------------|
B|--------------------------------------------------------------------------|
G|-10-----------------------------------------------------------------------|
D|-10-(48-TIMES)------------------------------------------------------------|
A|-8------------------------------------------------------------------------|
E|--------------------------------------------------------------------------|

  G.1
e|-------------------------------------------------------------------------|
B|-------------------------------------------------10----------------------|
G|-------------------------------------------------10----------------------|Play this last chord
D|/1010101010101010101010109999999999997777777777779----twelve times also--|
A|/8-8-8-8-8-8-8-8-8-8-8-8-------------------------------------------------|
E|-------------------------------------------------------------------------|
 |G.2
e|---------------------------------------------------------------------------|
B|---------------------------------------------------------------------------|
G|-10------------------------------------------------------------------------|
D|-10-(48-TIMES)-------------------------------------------------------------|
A|-8-------------------------------------------------------------------------|
E|---------------------------------------------------------------------------|

  WE;LL CALL THIS ONE FIG.1 FOR REFERENCE, G.1+2, (2 TIMES

e|---------------------------------------------------------------------------|
B|---------------------------------------------------------------------------|
G|---------------------------------------------------------------------------|
D|-------------------------5-55555-55552-2222/5------------------------------|
A|-2-22222-22225-55555-55553-33333-33330-0000/3-5----------------------------|
E|-0-00000-00003-33333-3333---------------------3----------------------------|

THEN PLAY VERSE "A' AGAIN BUT G.2 DOES A PICKSLIDE AND JOINS ON 2ND BAR
THEN DO THE bRIDGE "B" AGAIN
NOW ITS TIME FOR MELODY"A" PLAYED 2 TIMES
  G.1
e|--------------------------------------------------------------------------|
B|--------------------------------------------------------------------------|
G|--------------------------------------------------------------------------|
D|-------------------------5-55555-55552-2222/5-----------------------------|
A|-2-22222-22225-55555-55553-33333-33330-0000/3-5---------------------------|
E|-0-00000-00003-33333-3333---------------------3---------------------------|
 |G.2
e|---------------------------------------------------------------------------|
B|-------------------------------------10-878-7------------------------------|
G|-------------4--4574574575--579579579------9-79--7-------------------------|
D|-9--579579579----------------------------------10-910----------------------|
A|---------------------------------------------------------------------------|
E|---------------------------------------------------------------------------|

NOW THIS b**chIN PIECE OF 80'S METAL FOR YA
  MELODY"B" pLAYED TWICE
  G.1
e|---------------------------------------------------------------------------|
B|---------------------------------------------------------------------------|
G|---------------------------------------------------------------------------|
D|----------------------------------754524-2---------------------------------|
A|------------2-2352352353-357357357------5-3523-----------------------------|
E|-7-357357357---------------------------------------------------------------|
 |G.2
e|--------------------------------------------------------------------------|
B|--------------------------------------------------------------------------|
G|----------------------------------5424-2----------------------------------|
D|------------0-0240240242-245245245----5-4524-2----------------------------|
A|-5-235235235--------------------------------5-----------------------------|
E|--------------------------------------------------------------------------|

  NOW FIG.2
  G.1
e|--------------------------------------------------------------------------|
B|--------------------------------------------------------------------------|
G|--------4----9-----5------------------------------------------------------|
D|--------5----10----7------------------------------------------------------|
A|-2------------------------------------------------------------------------|
E|-0----0-------------------------------------------------------------------|
 |G.2
e|--------------------------------------------------------------------------|
B|--------------------------------------------------------------------------|
G|--------------------------------------------------------------------------|
D|--------------------------------------------------------------------------|
A|-2-----------3-----0------------------------------------------------------|
E|-0----0-3-----------------------------------------------------------------|

NOW BREAKDOWN 'A"  (4 TIMES)
  G.1
e|--------------------------------------------------------------------------|
B|--------------------------------------------------------------------------|
G|--------------------------------------------------------------------------|
D|--------------------------------------------------------------------------|
A|-5---2-2-2-2-2-2-2--------------------------------------------------------|
E|-3---0-0-0-0-0-0-0--------------------------------------------------------|
 |G.2
e|--------------------------------------------------------------------------|
B|--------------------------------------------------------------------------|
G|--------------------------------------------------------------------------|
D|--------------------------------------------------------------------------|
A|-2---2-2-2-2-2-2-2--------------------------------------------------------|
E|-3---0-0-0-0-0-0-0--------------------------------------------------------|

  AND BREAKDOWN "B" PLAYED 3 TIMES
  G.1+2
e|---------------------------------------------------------------------------|
B|---------------------------------------------------------------------------|
G|-----PM.---PM.---PM.-.-----------------------------------------------------|
D|---------------------------------------------------------------------------|
A|-5-2-222-2-222-2----2------------------------------------------------------|
E|-3-0-000-0-000-0-010-01----------------------------------------------------|

 THEN
  G.1+2
e|--------------------------------------------------------------------------|
B|--------------------------------------------------------------------------|
G|-----PM.---------------------------------PM-------------------------------|
D|-----------2-2-2-2-2-2-2-2-2-2-2-2-2-2------------------------------------|
A|-5-2-222-2-0-0-0-0-0-0-0-0-0-0-0-0-0-0--0---------------------------------|
E|-3-0-000-0-------------------------------101------------------------------|

 THEN VERSE "A'
      BRIDGE "B"
      MELODY "A"
      mELODY "B"

  END ON SUMPTHIN LIKE THIS

e|---------------------------------------------------------------------------|
B|---------------------------------------------------------------------------|
G|---------------------------------------------------------------------------|
D|---PM.......................................-------------------------------|
A|-2-2222-2222-222222222-2-2222-2222-222222222---2---------------------------|
E|-0-0000-0000-000000000-0-0000-0000-000000000---0---------------------------|

FUN FUN FUN. . . TILL NEXT TIME
            
Submit corrections

comments powered by Disqus
↑ Back to top | 3 Inches Of Blood Tabs for God Of The Cold White Silence. Lyrics for acoustic guitar and electric guitar. 1 Tablatures and chords are parodies/interpretations of the original songs. You may use it for private study, scholarship, research or language learning purposes only