» » »

God Of The Cold White Silence Tabs (ver.1)

Artists:  A B C D E F G H I J K L M N O P Q R S T U V W X Y Z # 

God Of The Cold White Silence Tabs (ver.1)

3 Inches Of Blood
Rating:
4/5 (4 votes)

Hard to play? Try these video lessons and learn fast.
                Band:3 INCHES OF BLOOD
ALBUM:FIRE UP THE BLADES

.=palm mute
/\=slide up down

I did this already in the wrong tuning so here it is correctly
STANDARD TUNING

 Intro
  g.1
D|--------------------------------------------4-----------------------------|
A|--------------------------------------------4-----------------------------|
E|--------------------------------------------2-----------------------------|
 |g.2
e|--------------------------------------------------------------------------|
B|-...........---.......----...........---...-------------------------------|
G|--------------------------------------------------------------------------|
D|-------------8---------10-------------8-----------------------------------|
A|-8-888-9-8-9---9-8-9-8----8-888-9-8-9---9-8-9-----------------------------|
E|--------------------------------------------------------------------------|

  g.1
D|-3------------------------x\----------------------------------------------|
A|-3------------------------x\pickslide-------------------------------------|
E|-1------------------------x\----------------------------------------------|
 |g.2
e|--------------------------------------------------------------------------|
B|-...........---.......----...........---...-------------------------------|
G|--------------------------------------------------------------------------|
D|-------------8---------10-------------8-----------------------------------|
A|-8-888-9-8-9---9-8-9-8----8-888-9-8-9---9-8-9-----------------------------|
E|--------------------------------------------------------------------------|

  verse.A ,g.1+2,(played 4x)
e|--------------------------------------------------------------------------|
B|-...........---.......---...........---...--------------------------------|
G|--------------------------------------------------------------------------|
D|--------------------------------------------------------------------------|
A|-------------1---------3-------------1-----4------------------------------|
E|-1-111-2-1-2---2-1-2-1---1-111-2-1-2---2-1-2------------------------------|

  Verse.B,(2x)
  g.1
D|--------------------------------------------------------------------------|
A|-------------1---------3-------------1------------------------------------|
E|-1-111-2-1-2---2-1-2-1---1-111-2-1-2---2-1-2------------------------------|
 |g.2
D|-------------8---------10------------8-------------------------------------|
A|-8-888-9-8-9---9-8-9-8---8-888-9-8-9---9-8-9-------------------------------|
E|---------------------------------------------------------------------------|

Bridge.A (1x)
  g.1
G|-666666666666-------------------------------------------------------------|
D|-444444444444-------------------------------------------------------------|
A|-------------3333333333331111111111114------------------------------------|
E|--------------------------------------------------------------------------|
 |g.2
G|-11-----------------------------------------------------------------------|
D|-11-(37x)-----------------------------------------------------------------|
A|-9------------------------------------------------------------------------|
E|--------------------------------------------------------------------------|

 THen play V.A again
 then Bridge.B (1x)
  g.1
e|--------------------------------------------------------------------------|
B|--------------------------------------------------------------------------|
G|-666666666666-------------------------------------------------------------|
D|-444444444444-------------------------------------------------------------|
A|-------------3333333333331111111111114444444444444------------------------|
E|--------------------------------------------------------------------------|
 |g.2
G|-11-----------------------------------------------------------------------|
D|-11-(48x)-----------------------------------------------------------------|
A|-9------------------------------------------------------------------------|
E|--------------------------------------------------------------------------|

  g.1
e|--------------------------------------------------------------------------|
B|---------------------11---------------------------------------------------|
G|---------------------11---------------------------------------------------|
D|/11-----10(12x)8(12x)10(12x)----------------------------------------------|
A|/9-(12x)------------------------------------------------------------------|
E|--------------------------------------------------------------------------|
 |g.2
G|-11-----------------------------------------------------------------------|
D|-11-(48x)-----------------------------------------------------------------|
A|-9------------------------------------------------------------------------|
E|--------------------------------------------------------------------------|

  Fig.A,g.1+2,(2x)
G|--------------------------------------------------------------------------|
D|-------------------------6-66666-66663-3333/6-----------------------------|
A|-3-33333-33336-66666-66664-44444-44441-1111/4-6---------------------------|
E|-1-11111-11114-44444-4444---------------------4---------------------------|

  then verse.A again,but g.2 does a pickslide and joins in on 2nd bar
  then Bridge.B again
  now Melody.A (2x)
  g.1
D|-------------------------6-66666-66663-3333/6-----------------------------|
A|-3-33333-33336-66666-66664-44444-44441-1111/4-6---------------------------|
E|-1-11111-11114-44444-4444---------------------4---------------------------|
 |g.2
e|--------------------------------------------------------------------------|
B|-----------------------------------------11989--8-------------------------|
G|----------------5-5685685686-681068106810-----10-810--8-------------------|
D|-10-681068106810------------------------------------11-1011---------------|
A|--------------------------------------------------------------------------|
E|--------------------------------------------------------------------------|

Melody.B (2x)
  g.1
D|-----------------------------------865635-3-------------------------------|
A|------------3-3463463464-468468468-------6-4634---------------------------|
E|-8-468468468--------------------------------------------------------------|
 |g.2
G|-----------------------------------6535-3---------------------------------|
D|------------1-1351351353-356356356-----6-5635-3---------------------------|
A|-6-346346346---------------------------------6----------------------------|
E|--------------------------------------------------------------------------|

 fig.2,(1x)
  g.1
G|--------5----10----6------------------------------------------------------|
D|--------6----11----8------------------------------------------------------|
A|-3------------------------------------------------------------------------|
E|-1----1-------------------------------------------------------------------|
 |g.2
D|--------------------------------------------------------------------------|
A|-3-----------4-----1------------------------------------------------------|
E|-1----1-4-----------------------------------------------------------------|

 Breakdown.A (4x)
  g.1
e|--------------------------------------------------------------------------|
B|--------------------------------------------------------------------------|
G|--------------------------------------------------------------------------|
D|--------------------------------------------------------------------------|
A|-6---3-3-3-3-3-3-3--------------------------------------------------------|
E|-4---1-1-1-1-1-1-1--------------------------------------------------------|
 |g.2
e|--------------------------------------------------------------------------|
B|--------------------------------------------------------------------------|
G|--------------------------------------------------------------------------|
D|--------------------------------------------------------------------------|
A|-3---3-3-3-3-3-3-3--------------------------------------------------------|
E|-4---1-1-1-1-1-1-1--------------------------------------------------------|

  Breakdown.B,G.1+2,(3x)
D|-----...---...---...-.----------------------------------------------------|
A|-6-3-333-3-333-3----3-----------------------------------------------------|
E|-4-1-111-1-111-1-121-12---------------------------------------------------|

  then G.1+2
D|-----...---3-3-3-3-3-3-3-3-3-3-3-3-3-3---..-------------------------------|
A|-6-3-333-3-1-1-1-1-1-1-1-1-1-1-1-1-1-1--1---------------------------------|
E|-4-1-111-1-------------------------------212------------------------------|

 then verse.a
      bridge.b
      Melody.A
      melody.b
    end on this
e|---------------------------------------------------------------------------|
B|---------------------------------------------------------------------------|
G|---------------------------------------------------------------------------|
D|---.........................................-------------------------------|
A|-3-3333-3333-333333333-3-3333-3333-333333333---3---------------------------|
E|-1-1111-1111-111111111-1-1111-1111-111111111---1---------------------------|

I guess I should just do this cr*p when its right the
first time, eh? Peace.
            
Hard to play? Try these video lessons and learn fast. | Correct




comments powered by Disqus
↑ Back to top | Tablatures and chords are parodies/interpretations of the original songs. You may use it for private study, scholarship, research or language learning purposes only