>
 >
Forest King 1

Forest King 1 Guitar Tabs

3 Inches Of Blood - Forest King 1 chords, tabs, tablatures, lyrics

Guitar lessons | Add/correct | Request | Top 50 tabs Artists:  A B C D E F G H I J K L M N O P Q R S T U V W X Y Z 0-9

Forest King 1 Guitar Tabs – 3 Inches Of Blood

CD, Sheet music, Poster

Do you like Forest King 1? Share with your friends now
TabsTabs v2
Band: 3 Inches Of Blood

E# tuning=E#-A#-D#-G#-B#-e#

.=palm mute
/\=slide up down
<=swell with volume knob
b=bend
h=hammer on
~=tremolo(wiggle yer fingers)
(3x)=triplet
(2x)=pick note twice
(24x)=play note 24 times

Fig.1 played once
  g.2
e|--------------------------------------------------------------------------|
B|--------------------------------------------------------------------------|
G|--------------------------------------------------------------------------|
D|-----9-----9---9---7------------------------------------------------------|
A|-7--7-10-10-7-7-10--9-----------------------------------------------------|
E|---------------------10---------------------------------------------------|

Fig.2 played once
  g.1
e|--------------------------------------------------------------------------|
B|--------------------------------------------------------------------------|
G|-------..-..-------..-------------..-..-------..--------------------------|
D|-6-9-9---9---6-9-9----7-7---6-9-9---9---6-9-9----7-7----------------------|
A|-4/7-7-77777-4/7-7-77-5-5---4/7-7-77777-4/7-7-77-5-5----------------------|
E|--------------------------------------------------------------------------|
 |G.2
e|---------------------------------------------------------------------------|
B|---------------------------------------------------------------------------|
G|---------------------------------------------------------------------------|
D|------9-----9-----9---7----------9-----9-----9---7-------------------------|
A|-7--7--10-10--7-7--10--9----7--7--10-10--7-7--10--9------------------------|
E|------------------------10-------------------------10----------------------|

  g.1
e|--------------------------------------------------------------------------|
B|--------------------------------------------------------------------------|
G|------..---..------..--------...-...-...-...------------------------------|
D|-5-5-----5----5--5----7---------------------------------------------------|
A|-3-3--33-3-33-3--3-33-53---7----------------57-5-5------------------------|
E|------------------------5--5-555-555-555-557---3-3------------------------|
 |g.2
e|---------------------------------------------------------------------------|
B|-----------------------------...-...-...-...-------------------------------|
G|--------------------------------------------79-7-7-------------------------|
D|-----10-----10---10---7----7-777-777-777-779---5-5-------------------------|
A|-7--7--10-10--7-7--10--9---------------------------------------------------|
E|------------------------10-------------------------------------------------|

Fig.3 played twice
  g.1
e|---------------------------------------------------------------------------|
B|---------------------------------------------------------------------------|
G|---------------------------------------------------------------------------|
D|------9-----9-----9---7----------9-----9-----9---7-------------------------|
A|-7--7--10-10--7-7--10--9----7--7--10-10--7-7--10--9------------------------|
E|------------------------10-------------------------10----------------------|
 |g.2
e|---------------------------------------------------------------------------|
B|---------------------------------------------------------------------------|
G|-------7---7-----7----------------7---7-----7------------------------------|
D|--------9-9-------9-10-9-7---------9-9-------9-10-9-7----------------------|
A|-10--10-----10-10-----------10--10-----10-10-------------------------------|
E|---------------------------------------------------------------------------|

  g.1
e|---------------------------------------------------------------------------|
B|--------------------------------...-...-...-...----------------------------|
G|------------------------------------------------7--9-7--7------------------|
D|-----10-----10---10---7-------7-777-777-777-779------5--5------------------|
A|-7--7--10-10--7-7--10----9-------------------------------------------------|
E|---------------------------10----------------------------------------------|
 |g.2
e|---------------------------------------------------------------------------|
B|--------------------------------..............-----------------------------|
G|------9-----9-----9---------------------------9-11-12----------------------|
D|-------10-10-------10-12-109-10-10--10--10--10-------12-12-----------------|
A|-10-10-------10-10-------------(3x)(3x)(3x)(2x)----------------------------|
E|---------------------------------------------------------------------------|

Fig.4 Played once
  g.1
e|---------------------------------------------------------------------------|
B|---------------------------------------------------------------------------|
G|---------------------------------------------------------------------------|
D|-----4-4-5-----------------------------------------------------------------|
A|-2-2-2-2-3-----------------------------------------------------------------|
E|-0-0-----------------------------------------------------------------------|
 |g.2
e|--------------------------------------------------------------------------|
B|--------------------------------------------------------------------------|
G|--------------------------------------------------------------------------|
D|-----7-7-5----------------------------------------------------------------|
A|-2-2-5-5------------------------------------------------------------------|
E|-0-0----------------------------------------------------------------------|

Fig.5 played twice with appropriate endings
  g.1+2                                                               end 1
e|-------------------------------------------------------------------|------|
B|-------------------------------------------------------------------|------|
G|---.............--.............----..---..-----..-------..........-|------|
D|-------------------------------5-5----5----7-7------5--------------|--5---|
A|-2------------022------------023-3-33-3-33-5-5-55-5---2------------|5-----|
E|-0-00000000003--0-00000000003-------------------------0-0000000000-|------|

  g.1 end 2  g.2 end 2
e|----------|---------------------------------------------------------------|
B|----------|---------------------------------------------------------------|
G|----------|---------------------------------------------------------------|
D|----------|-7-9-----------------------------------------------------------|
A|-0-2------|---------------------------------------------------------------|
E|----------|---------------------------------------------------------------|

fig.6 played once
  g.1+2
e|--------------------------------------------------------------------------|
B|--------------------------------------------------------------------------|
G|----------......----------------......------------------------------------|
D|-5--5-4------------2-4-5--5-4---------20-2-4-5--5-4-----------------------|
A|-3--2-2-2----------0-2-3--2-2-2----------0-2-3--2-2-----------------------|
E|--------0-00000032------------0-000000------------------------------------|

fig.6b played once
  g.1
e|---------------------------------------------------------------------------|
B|---------------------------------------------------------------------------|
G|---------------------------------------------------------------------------|
D|------9-----9-----9---7----------------------------------------------------|
A|-7--7--10-10--7-7--10--9--7\-----------------------------------------------|
E|------------------------10-------------------------------------------------|
 |g.2
e|---------------------------------------------------------------------------|
B|---------------------------------------------------------------------------|
G|-------7---7-----7---------------------------------------------------------|
D|--------9-9-------9-10-9-7-------------------------------------------------|
A|-10--10-----10-10---------10\----------------------------------------------|
E|---------------------------------------------------------------------------|

fig.7 played twice with apt. ending
  g.1                                                                 end 1
e|-------------------------------------------------------------------|------|
B|-------------------------------------------------------------------|------|
G|-..............-----..............-----..---..-----------..........|------|
D|-----------------------------------5-5----5----7\----5-------------|--5---|
A|-------------02-2-2-------------02-3-3-33-3-33-5\--5---2-----------|5---2-|
E|-00000000003----0-0-00000000003------------------------0-0000000000|----0-|
 |g.2                                                                 end 1
e|-------------------------------------------------------------------|------|
B|-..............-----..............-----..---..-----------..........|------|
G|-----------------------------------9-9----9------------------------|--7---|
D|-------------79-9-9-------------79-------------------7-5-----------|7---9-|
A|-777777777710---7-7-777777777710-------77---77-9\--9-----7777777777|----7-|
E|-------------------------------------------------------------------|------|

g.1 end 2  g.2 end 2
e|----------|---------------------------------------------------------------|
B|----------|---------------------------------------------------------------|
G|----------|---------------------------------------------------------------|
D|----------|-7-9-----------------------------------------------------------|
A|-0-2------|---------------------------------------------------------------|
E|----------|---------------------------------------------------------------|

Fig.8 Played once
  g.1+2
e|--------------------------------------------------------------------------|
B|--------------------------------------------------------------------------|
G|----------......----------------......----------------......--------------|
D|-5--5-4------------2-4-5--5-4---------20-2-4-5--5-4------------2-4-5--5-4-|
A|-3--2-2-2----------0-2-3--2-2-2----------0-2-3--2-2-2----------0-2-3--2-2-|
E|--------0-00000032------------0-000000--------------0-00000032------------|

Fig.9 played twice
  g.1
e|---------------------------------------------------------------------------|
B|---------------------------------------------------------------------------|
G|---------------------------------------------------------------------------|
D|------------------------------7-------------------------------5------------|
A|-7-10-9-10-7-10-9-10-7-10-9-10-10-9-7--5-9-7-9-5-9-7-9-5-9-7-9-9-7-5-------|
E|---------------------------------------------------------------------------|
 |G.2
e|---------------------------------------------------------------------------|
B|---------------------------------------------------------------------------|
G|------------------------------5-------------------------------4------------|
D|-5-9--7-9--5-9--7-9--5-9--7-9--9--7-5--4-7-5-7-4-7-5-7-4-7-5-7-7-5-4-------|
A|---------------------------------------------------------------------------|
E|---------------------------------------------------------------------------|

  g.1
e|---------------------------------------------------------------------------|
B|---------------------------------------------------------------------------|
G|---------------------------------------------------------------------------|
D|------------------------5------------------------------------7-------------|
A|-5-9-7-9-5-9-7-9-5-9-7-9-9-7-5--7-10-9-10-7-10-9-10-7-10-9-10-10-9-7-------|
E|---------------------------------------------------------------------------|
 |g.2
e|--------------------------------------------------------------------------|
B|--------------------------------------------------------------------------|
G|------------------------4------------------------------------5------------|
D|-4-7-5-7-4-7-5-7-4-7-5-7-7-5-4--5-9--7-9--5-9--7-9--5-9--7-9--9--7-5------|
A|--------------------------------------------------------------------------|
E|--------------------------------------------------------------------------|

Fig.10 Played twice
  g.1
e|--------------------------------------------------------------------------|
B|--------------------------------------------------------------------------|
G|----------------------------------------5-4-5-7--5-4--5-4----4------------|
D|9------------------7--------------------------------7----7--5-7--5-4-4--4-|
A|7------------------5-----------------7------------------------------7-5---|
E|-------------------------------------5------------------------------------|
 |g.2
e|--------------------------------------------------------------------------|
B|----............-------...........----------------------------------------|
G|---------------------------------9-7-9--9-7-9-10-9-7--9-7----7------------|
D|----9-7-9-10-9-7-----------7-9-10-------------------10---10-9-10-9-7-7----|
A|10--------------10-9---9-10-----------------------------------------9---9-|
E|----------------------------------------------------------------------10--|

fig.11 played once
  g.1
e|--------------------------------------------------------------------------|
B|--------------------------------------------------------------------------|
G|--------------------------------------------------------------------------|
D|-........................................................................-
A|-777777777777777777777777555555555555555555555555-------------------------|
E|-------------------------------------------------555555555555555555555555-|
 |g.2
e|--------------------------------------------------------------------------|
B|--------------------------------------------------------------------------|
G|-........................................................................-
D|-555555555555555555555555444444444444444444-------------------------------|
A|-------------------------------------------777555333333333333333333333333-|
E|--------------------------------------------------------------------------|

  g.1
e|--------------------------------------------------------------------------|
B|--------------------------------------------------------------------------|
G|--------------------------------------------------------------------------|
D|-........................-------------------------------------------------|
A|--------------------------------------------------------------------------|
E|-333333333333222222222222-------------------------------------------------|
 |g.2
e|--------------------------------------------------------------------------|
B|--------------------------------------------------------------------------|
G|--------------------------------------------------------------------------|
D|-........................-------------------------------------------------|
A|-555555555555555555555555-------------------------------------------------|
E|--------------------------------------------------------------------------|

FIG.12 played once
  g.1
e|---------------------------------------------------------------------------|
B|---------------------------------------------------------------------------|
G|-...-...-...-...-...-...-...-...-...-...-...-...-...-...-...-...-----------|
D|9---9---9---9---7---7---7---7----------------------------------------------|
A|-777-777-777-777-555-555-555-5557---7---7---7---5---5---2---2-----2--------|
E|---------------------------------555-555-555-555-333-333-222-222--0--/7\---|
 |g.2
e|---------------------------------------------------------------------------|
B|---------------------------------------------------------------------------|
G|7---7---7---7---7---7---7---7---5---5---5---5---7---7---7---7--------------|
D|-555-555-555-555-777-777-777-777-777-777-777-777-555-555-444-444--5---10\--|
A|---------------------------------------------------------------------------|
E|---------------------------------------------------------------------------|

Fig.13 played once
  g.1
e|--------------------------------------------------------------------------|
B|-----------------10b--8----/8----------10b-10b--8-------------------------|
G|-9<---\0/9---797--------9\-----9---797------------9-----------------------|
D|--------------------------------------------------------------------------|
A|--------------------------------------------------------------------------|
E|--------------------------------------------------------------------------|
 |g.2
e|--------------------------------------------------------------------------|
B|--------------------------------------------------------------------------|
G|-----------------9----7----------------9---9b---7-------------------------|
D|-------------797--------9----------797------------9-----------------------|
A|-7<------10-----------------7--10-----------------------------------------|
E|--------------------------------------------------------------------------|

Fig.14 played twice with apt end
  g.1                                                  end 1
e|----------------------------------------------------|----------------------|
B|15-12--15-12--15-12-15---15-12--15-12--15-12-15b-15b|----------------------|
G|-----14-----14----------------14-----14-------------|12-9---12-11--11-9----|
D|----------------------------------------------------|------------12--------|
A|----------------------------------------------------|----------------------|
E|----------------------------------------------------|----------------------|
 |g.2                                                  end 2
e|----------------------------------------------------|----------------------|
B|----------------------------------------------------|----------------------|
G|12-9---12-9---12-9--12---14-12--14-12--14-12-14b-14b|12-----12-11--11-12---|
D|-----12-----12----------------14-----14-------------|---14-------12--------|
A|----------------------------------------------------|----------------------|
E|----------------------------------------------------|----------------------|

  g.1 end 2        g.2 end 2
e|----------------|---------------------------------------------------------|
B|---15h17-~~17~~-|---------------------------------------------------------|
G|---------(24x)--|12h14/16---16--------------------------------------------|
D|----------------|---------(24x)-------------------------------------------|
A|----------------|---------------------------------------------------------|
E|----------------|---------------------------------------------------------|

Fig.15 played twice
  g.1
e|--------------------------------------------------------------------------|
B|--------------------------------------------------------------------------|
G|.....-.....-.....-...-....-...-....-...-....-...-....-...-.......-.....-.-|
D|-----5-----5--------------4---4-------------4---4----------------5-----5--|
A|7--7--7--7--7----5---5--55-5-5-5---3---3--55-5-5-5---5---5--7--7--7--7--7-|
E|---------------77-7-7-7----------55-5-5-5----------77-7-7-7---------------|
 |g.2
e|----------------------------------------------------------------------------|
B-----------------------------------------------------------------------------|
G|-----------------7---7------------------------------------------------------|
D|-----9-----9--------------7---7-------------7---7----9---9-------9-----9----|
A|10-10-10-10-10-99-9-9-9-99-9-9-9---7---7--99-9-9-9----------10-10-10-10-10--|
E|---------------------------------88-8-8-8----------88-8-8-8-----------------|

  g.1
e|---------------------------------------------------------------------------|
B|---------------------------------------------------------------------------|
G|---------------------------------------------------------------------------|
D|---------------------------------------------------------------------------|
A|-5777775777775777----------------------------------------------------------|
E|---------------------------------------------------------------------------|
 |g.2
e|--------------------------------------------------------------------------|
B|--------------------------------------------------------------------------|
G|--------------------------------------------------------------------------|
D|-7999997999997999---------------------------------------------------------|
A|--------------------------------------------------------------------------|
E|--------------------------------------------------------------------------|

 g.1
e|--------------------------------------------------------------------------|
B|--------------------------------------------------------------------------|
G|.....-.....-.....-...-....-...-....-...-....-...-....-...-.---------------|
D|-----5-----5--------------4---4-------------4---4-------------------------|
A|7--7--7--7--7----5---5--55-5-5-5---3---3--55-5-5-5---5---5----------------|
E|---------------77-7-7-7----------55-5-5-5----------77-7-7-7---------------|
 |g.2
e|--------------------------------------------------------------------------|
B|.....-.....-.....-...-....-...-....-...-....-...-....-...-.---------------|
G|-----------------7---7----------------------------------------------------|
D|-----9-----9--------------7---7-------------7---7----9---9----------------|
A|10-10-10-10-10-99-9-9-9-99-9-9-9---7---7--99-9-9-9------------------------|
E|---------------------------------88-8-8-8----------88-8-8-8---------------|

  g.1
e|--------------------------------------------------------------------------|
B|--------------------------------------------------------------------------|
G|--------------------------------------------------------------------------|
D|-5777775777775777775777577577---------------------------------------------|
A|--------------------------------------------------------------------------|
E|--------------------------------------------------------------------------|
 |g.2
e|--------------------------------------------------------------------------|
B|--------------------------------------------------------------------------|
G|--------------------------------------------------------------------------|
D|-7999997999997999997999799799---------------------------------------------|
A|--------------------------------------------------------------------------|
E|--------------------------------------------------------------------------|

then play fig.8,Fig.3,fig.4,fig.6b

this is the second time I tried getting this tab on this site,
they denied me the first time(god knows why)
but I did my best,so let me know what you think.
Peace.





Comments


Popular 3 Inches Of Blood tabs & chords
Rejoice In The Fire Of Mans Demise Bass Tabs
Assassins Of The Light Tabs
Deadly Sinners Intro Tabs
Fear On The Bridge 1 Tabs
Metal Woman Intro Tabs
Premonition Of Pain Tabs
Rejoice In The Fires Of Mans Demise Tabs
The Great Hall Of Feasting Tabs
Trial Of Champions 3 Tabs
Wykydtron Tabs


Song lyrics



↑ Back to top | Tablatures and chords are parodies/interpretations of the original songs. You may use it for private study, scholarship, research or language learning purposes only
© 2014 AZChords.com Contact us | Privacy policy | DMCA | Add/correct tabs | Request tabs | Top 50 tabs