>
 >
Destroy The Orcs

Destroy The Orcs Guitar Tabs

3 Inches Of Blood - Destroy The Orcs chords, tabs, tablatures, lyrics

Guitar lessons | Add/correct | Request | Top 50 tabs Artists:  A B C D E F G H I J K L M N O P Q R S T U V W X Y Z 0-9

Destroy The Orcs Guitar Tabs – 3 Inches Of Blood

CD, Sheet music, Poster

Do you like Destroy The Orcs? Share with your friends now
Tabs
3 INCHES OF BLOOD
DESTROY THE ORCS
EADGBE

*=PALM MUTE


tab includes whole song w/ both gtr parts


0:01
L
------------------------------------|
------------------------------------|
****-6-***-7-*-6-****-6-****-4------|
4444-4-444-4-9-4-7777-7-2222-2------|
------------------------------------|
------------------------------------|
R
---------------------------------------|
---------------------------------------|
---------------------------------------|
****-11-***-12-*-11--*-*-*-*-11-****-9-|
9999-9--999-9--9-9--12121212-12-7777-7-|
---------------------------------------|

L
------------------------------------|
------------------------------------|
****-6-***-7-*-6-****-6-****-4------|
4444-4-444-4-9-4-7777-7-2222-2------|
------------------------------------|
------------------------------------|
R
---------------------------------------|
---------------------------------------|
---------------------------------------|
****-11-***-12-*-11--*-*-*-*-11-****-9-|
9999-9--999-9--9-9--12121212-12-7777-7-|
---------------------------------------|

L
------------------------------------|
------------------------------------|
****-6-***-7-*-6-****-6-****-4------|
4444-4-444-4-9-4-7777-7-2222-2------|
------------------------------------|
------------------------------------|
R
---------------------------------------|
---------------------------------------|
---------------------------------------|
****-11-***-12-*-11--*-*-*-*-11-****-9-|
9999-9--999-9--9-9--12121212-12-7777-7-|
---------------------------------------|

L
------------------------------------|
------------------------------------|
****-6-***-7-*-6-****-6-****-4------|
4444-4-444-4-9-4-7777-7-2222-2------|
------------------------------------|
------------------------------------|
R
---------------------------------------|
---------------------------------------|
---------------------------------------|
****-11-***-12-*-11--*-*-*-*-11-****-9-|
9999-9--999-9--9-9--12121212-12-7777-7-|
---------------------------------------|


B
-----------------|
-----------------|
-2--------2--4---|
-0--------0--2---|
-----------------|
-----------------|


0:13
L
------------------------------------------_____-------|
----------------------^--------^---------/     \------|
-6-***-***-***-***---7-6------7-6---6---9-7-6-7-6-----|
-4-444-444-444-444-*-----*-7-*----*---*-----------*---|
-------------------0-----0---0----0---0-----------0---|
------------------------------------------------------|
R
------------------------------------------------------|
------------------------------------------^---^-------|
-6-***-***-***-***----^--------------6---970-760------|
-4-444-444-444-444-*-7-6-*---*-7-6-*---*----------*---|
-------------------0-----0-5-0-----0---0----------0---|
------------------------------------------------------|

L
------------------------------------------_____-------|
----------------------^--------^---------/     \------|
-6-***-***-***-***---7-6------7-6---6---9-7-6-7-6-----|
-4-444-444-444-444-*-----*-7-*----*---*-----------*---|
-------------------0-----0---0----0---0-----------0---|
------------------------------------------------------|
R
------------------------------------------------------|
------------------------------------------^---^-------|
-6-***-***-***-***----^--------------6---970-760------|
-4-444-444-444-444-*-7-6-*---*-7-6-*---*----------*---|
-------------------0-----0-5-0-----0---0----------0---|
------------------------------------------------------|

L
------------------------------------------_____-------|
----------------------^--------^---------/     \------|
-6-***-***-***-***---7-6------7-6---6---9-7-6-7-6-----|
-4-444-444-444-444-*-----*-7-*----*---*-----------*---|
-------------------0-----0---0----0---0-----------0---|
------------------------------------------------------|
R
------------------------------------------------------|
------------------------------------------^---^-------|
-6-***-***-***-***----^--------------6---970-760------|
-4-444-444-444-444-*-7-6-*---*-7-6-*---*----------*---|
-------------------0-----0-5-0-----0---0----------0---|
------------------------------------------------------|

L
------------------------------------------_____-------|
----------------------^--------^---------/     \------|
-6-***-***-***-***---7-6------7-6---6---9-7-6-7-6-----|
-4-444-444-444-444-*-----*-7-*----*---*---------------|
-------------------0-----0---0----0---0---------------|
------------------------------------------------------|
R
------------------------------------------------------|
------------------------------------------^---^-------|
-6-***-***-***-***----^--------------6---970-760------|
-4-444-444-444-444-*-7-6-*---*-7-6-*---*--------------|
-------------------0-----0-5-0-----0---0--------------|
------------------------------------------------------|


0:31
L
------------------------------------------------_--------|
---------------------------^---------^---------/ \---^---|
--6---*-7-*-6---*-7-*-6---7-6-------7-6---6-*-9-7-6-7-6--|
*-4---4---4-----4---4---*-----*-7-*-----*---5------------|
0-----------------------5-----5---5-----5----------------|
---------------------------------------------------------|
R                                               _
-----------------------------------------------/ \---^---|
---------------------------^---------^--------8-7-5-7-5--|
------*-7-*-6---*-7-*-6---7-6-------7-6---6-*------------|
*-4---4---4-----4---4---*-----*-7-*-----*---5------------|
0-----------------------5-----5---5-----5----------------|
---------------------------------------------------------|

L                                               
------------------------------------------------_--------|
--------8---7-----8---7----^---------^---------/ \---^---|
--6---*---*-----*---*-----7-6-------7-6---6-*-9-7-6-7-6--|
*-4---4---4-----4---4---*-----*-7-*-----*---0------------|
0-----------------------5-----5---5-----5----------------|
---------------------------------------------------------|
R                                               _
-----------------------------------------------/ \---^---|
---------------------------^---------^--------8-7-5-7-5--|
------*-7-*-6---*-7-*-6---7-6-------7-6---6-*------------|
*-4---4---4-----4---4---*-----*-7-*-----*---5------------|
0-----------------------5-----5---5-----5----------------|
---------------------------------------------------------|

L
------------------------------------------------_--------|
---------------------------^---------^---------/ \---^---|
--6---*-7-*-6---*-7-*-6---7-6-------7-6---6-*-9-7-6-7-6--|
*-4---4---4-----4---4---*-----*-7-*-----*---5------------|
0-----------------------5-----5---5-----5----------------|
---------------------------------------------------------|
R                                               _
-----------------------------------------------/ \---^---|
---------------------------^---------^--------8-7-5-7-5--|
------*-7-*-6---*-7-*-6---7-6-------7-6---6-*------------|
*-4---4---4-----4---4---*-----*-7-*-----*---5------------|
0-----------------------5-----5---5-----5----------------|
---------------------------------------------------------|

L                                               
------------------------------------------------_--------|
--------8---7-----8---7----^---------^---------/ \---^---|
--6---*---*-----*---*-----7-6-------7-6---6-*-9-7-6-7-6--|
*-4---4---4-----4---4---*-----*-7-*-----*---0------------|
0-----------------------5-----5---5-----5----------------|
---------------------------------------------------------|
R                                               _
-----------------------------------------------/ \---^---|
---------------------------^---------^--------8-7-5-7-5--|
------*-7-*-6---*-7-*-6---7-6-------7-6---6-*------------|
*-4---4---4-----4---4---*-----*-7-*-----*---5------------|
0-----------------------5-----5---5-----5----------------|
---------------------------------------------------------|


0:50
B
----------------------------------------------------------------|
------------------------------------PH--PH--PH---PH-----PH--PH--|
-*-6--*-7-*-6--*-7-*-6-*-*-7-*-6----7---6----7---6-------7---6--|
-4-4--4-4-4-4--4-4-4-4-4-4-4-4-4-*-*--*----*---*----*-*----*----|
---------------------------------5-5--5----5---5----5-5----5----|
----------------------------------------------------------------|

-------------------------------------------------------------|
---------------------------------PH--PH--PH---PH-----PH--PH--|
-*-*-7-*-6--*-7-*-6-*-*-7-*-6----7---6----7---6-------7---6--|
-4-4-4-4-4--4-4-4-4-4-4-4-4-4-*-*--*----*---*----*-*----*----|
------------------------------5-5--5----5---5----5-5----5----|
-------------------------------------------------------------|

-------------------------------------------------------------|
---------------------------------PH--PH--PH---PH-----PH--PH--|
-*-*-7-*-6--*-7-*-6-*-*-7-*-6----7---6----7---6-------7---6--|
-4-4-4-4-4--4-4-4-4-4-4-4-4-4-*-*--*----*---*----*-*----*----|
------------------------------5-5--5----5---5----5-5----5----|
-------------------------------------------------------------|

-------------------------------------------------------------------|
---------------------------------PH--PH--PH---PH-------------------|
-*-*-7-*-6--*-7-*-6-*-*-7-*-6----7---6----7---6--*-2-4-*-2-1-***-1-|
-4-4-4-4-4--4-4-4-4-4-4-4-4-4-*-*--*----*---*----0-----0-----222-2-|
------------------------------5-5--5----5---5----------------------|
-------------------------------------------------------------------|


1:11
B
------------------------------------------------------|
------------------------------------------------------|
-6-***-***-***-2-***-***-***-***-***-2-4-*-2-1-***-1--|
-4-444-444-444-0-000-000-000-000-000-----0-----222-2--|
------------------------------------------------------|
------------------------------------------------------|

------------------------------------------------------|
------------------------------------------------------|
-6-***-***-***-2-***-***-***-***-***-2-4-*-2-1-***-1--|
-4-444-444-444-0-000-000-000-000-000-----0-----222-2--|
------------------------------------------------------|
------------------------------------------------------|

------------------------------------------------------|
------------------------------------------------------|
-6-***-***-***-2-***-***-***-***-***-2-4-*-2-1-***-1--|
-4-444-444-444-0-000-000-000-000-000-----0-----222-2--|
------------------------------------------------------|
------------------------------------------------------|


1:26
---------------------------------------|
---------------------------------------|
-6-***-***-***-2-4-*-2-1-*-2-4-*-2-1---|
-4-444-444-444-----0-----0-----0-------|
---------------------------------------|
---------------------------------------|

---------------------------------------|
---------------------------------------|
-6-***-***-***-2-4-*-2-1-*-2-4-*-2-1---|
-4-444-444-444-----0-----0-----0-------|
---------------------------------------|
---------------------------------------|



L
---------------------------------------|
---------------------------------------|
-6-***-***-***-7-9-*-5-4-*-7-9-*-5-4---|
-4-444-444-444-----0-----0-----0-------|
---------------------------------------|
---------------------------------------|
R
---------------------------------------|
---------------------------------------|
-6-***-***-***-2-4-*-2-1-*-2-4-*-2-1---|
-4-444-444-444-----0-----0-----0-------|
---------------------------------------|
---------------------------------------|

L
---------------------------------------|
---------------------------------------|
-6-***-***-***-7-9-*-5-4-*-7-9-*-5-4---|
-4-444-444-444-----0-----0-----0-------|
---------------------------------------|
---------------------------------------|
R
---------------------------------------|
---------------------------------------|
-6-***-***-***-2-4-*-2-1-*-2-4-*-2-1---|
-4-444-444-444-----0-----0-----0-------|
---------------------------------------|
---------------------------------------|


1:41
L
------------------------------------------------------|
------------------------------------------------------|
-11----------------------7----------------------------|
-X-----------------------X----------------------------|
-9-----------------------5----------------------------|
------------------------------------------------------|
R
------------------------------------------------------|
------------------------------------------------------|
----^-----^------^-----^-----^-----^------^-----^-----|
-*-7-6-*-6-7--*-7-6-*-6-7-*-7-6-*-6-7--*-7-6-*-6-7----|
-9-----7------9-----7-----5-----7------7-----5--------|
------------------------------------------------------|

L
-------------------------------------------------------|
-------------------------------------------------------|
-11----------------------14----------------------------|
-X------------------------X----------------------------|
-9-----------------------12----------------------------|
-------------------------------------------------------|
R
------------------------------------------------------|
------------------------------------------------------|
----^-----^------^-----^-----^-----^------^-----^-----|
-*-7-6-*-6-7--*-7-6-*-6-7-*-7-6-*-6-7--*-7-6-*-6-7----|
-9-----7------9-----7-----5-----7------7-----5--------|
------------------------------------------------------|


1:49
L
-----------------------------------------------------------------------|
-----^--------^--------^--------^--------^--------^--------^--------^--|
-*-14-13--*-13-14--*-14-13--*-13-14--*-14-13--*-13-14--*-14-13--*-13-14|
16-------14-------16-------14-------12-------14-------12-------14------|
-----------------------------------------------------------------------|
-----------------------------------------------------------------------|
R
------------------------------------------------------|
------------------------------------------------------|
----^-----^------^-----^-----^-----^------^-----^-----|
-*-7-6-*-6-7--*-7-6-*-6-7-*-7-6-*-6-7--*-7-6-*-6-7----|
-9-----7------9-----7-----5-----7------7-----5--------|
------------------------------------------------------|


L
-----------------------------------------------------------------------|
-----^--------^--------^--------^--------^--------^--------^--------^--|
-*-14-13--*-13-14--*-14-13--*-13-14--*-14-13--*-13-14--*-14-13--*-13-14|
16-------14-------16-------14-------12-------14-------12-------14------|
-----------------------------------------------------------------------|
-----------------------------------------------------------------------|
R
------------------------------------------------------|
------------------------------------------------------|
----^-----^------^-----^-----^-----^------^-----^-----|
-*-7-6-*-6-7--*-7-6-*-6-7-*-7-6-*-6-7--*-7-6-*-6-7----|
-9-----7------9-----7-----5-----7------7-----5--------|
------------------------------------------------------|

L
-----------------------------------------------------------------------|
-----^--------^--------^--------^--------^--------^--------^--------^--|
-*-14-13--*-13-14--*-14-13--*-13-14--*-14-13--*-13-14--*-14-13--*-13-14|
16-------14-------16-------14-------12-------14-------12-------14------|
-----------------------------------------------------------------------|
-----------------------------------------------------------------------|
R
------------------------------------------------------|
------------------------------------------------------|
----^-----^------^-----^-----^-----^------^-----^-----|
-*-7-6-*-6-7--*-7-6-*-6-7-*-7-6-*-6-7--*-7-6-*-6-7----|
-9-----7------9-----7-----5-----7------7-----5--------|
------------------------------------------------------|

L
-----------------------------------------------------------------------|
-----^--------^--------^--------^--------^--------^--------^--------^--|
-*-14-13--*-13-14--*-14-13--*-13-14--*-14-13--*-13-14--*-14-13--*-13-14|
16-------14-------16-------14-------12-------14-------12-------14------|
-----------------------------------------------------------------------|
-----------------------------------------------------------------------|
R
------------------------------------------------------|
------------------------------------------------------|
----^-----^------^-----^-----^-----^------^-----^-----|
-*-7-6-*-6-7--*-7-6-*-6-7-*-7-6-*-6-7--*-7-6-*-6-7----|
-9-----7------9-----7-----5-----7------7-----5--------|
------------------------------------------------------|

L
-----------------------------------------------------------------------|
-----^--------^--------^--------^--------^--------^--------^--------^--|
-*-14-13--*-13-14--*-14-13--*-13-14--*-14-13--*-13-14--*-14-13--*-13-14|
16-------14-------16-------14-------12-------14-------12-------14------|
-----------------------------------------------------------------------|
-----------------------------------------------------------------------|
R
------------------------------------------------------|
------------------------------------------------------|
----^-----^------^-----^-----^-----^------^-----^-----|
-*-7-6-*-6-7--*-7-6-*-6-7-*-7-6-*-6-7--*-7-6-*-6-7----|
-9-----7------9-----7-----5-----7------7-----5--------|
------------------------------------------------------|

L
-----------------------------------------------------------|
-----^--------^--------^--------^--------------------------|
-*-14-13--*-13-14--*-14-13--*-13-14-2-----------2--4--6----|
16-------14-------16-------14-------0-----------0--2--4\---|
-----------------------------------------------------------|
-----------------------------------------------------------|
R
---------------------------------------------------|
---------------------------------------------------|
----^-----^------^-----^---------------------------|
-*-7-6-*-6-7--*-7-6-*-6-7--7---------7--9--11------|
-9-----7------9-----7------5---------5--7--9\------|
---------------------------------------------------|





Comments


Popular 3 Inches Of Blood tabs & chords
Premonition Of Pain Bass Tabs
Rejoice In The Fire Of Mans Demise Bass Tabs
Bloody Screams Tabs
Deadly Sinners Tabs
Night Maruaders Tabs
Ride Dark Horse Ride Intro Tabs
The Hydra's Teeth Tabs
Through The Horned Gate Tabs
Trial Of Champions 2 Tabs
Trial Of Champions Intro Tabs


Song lyrics



↑ Back to top | Tablatures and chords are parodies/interpretations of the original songs. You may use it for private study, scholarship, research or language learning purposes only
© 2014 AZChords.com Contact us | Privacy policy | DMCA | Add/correct tabs | Request tabs | Top 50 tabs