» » »

Crazy Nights Tabs (ver.1)

Artists:  A B C D E F G H I J K L M N O P Q R S T U V W X Y Z # 

Crazy Nights Tabs (ver.1)

3 Inches Of Blood
Rating:
3/5 (4 votes)
Tabs too difficult? Try these video lessons and learn fast.
                (Intro)
 3 Inches Of Blood
 Crazy Nights
Standard Tuning

Intro(4x)
   ......              ~      1st Ending    Last Time     ~
 ----------------------------|------------|---------------------------|
 ----------------------------|------------|---------------------------|
 ----------------0h1p0-------|------------|---------------------------|
 55-------66-5-3-------1-----|-33--3------|------3------6-6-----------|
 33333333-33-3-3-------------|-11--16-----|-66--61--6-----------------|
 ----------------------------|------4-----|-44--4---4--4-4------------|

Verse (a lot of times)
 ---------------------------------------------------------------------|
 ---------------------------------------------------------------------|
 ---------------------------------------------------------------------|
 55--33------6-6------------------------------------------------------|
 33--11--6------------------------------------------------------------|
 --------4--4-4-------------------------------------------------------|

 Someone wanna help me out and finish this tab?

Ian Hunter
            
Tabs too difficult? Try these video lessons and learn fast.


comments powered by Disqus
↑ Back to top | Tablatures and chords are parodies/interpretations of the original songs. You may use it for private study, scholarship, research or language learning purposes only