» » »

3 Inches Of Blood, Bloody Screams Tabs (ver.1)

Artists:  A B C D E F G H I J K L M N O P Q R S T U V W X Y Z # 

Bloody Screams Tabs (ver.1)

3 Inches Of Blood Tabs
Rating:
0/5 (0 votes)
Hard to play? Try these video lessons and learn fast.
                3 Inches Of Blood
Bloody Screams Of Despair That Stain The Ice
TUNING:Standard

Intro
gtr1
|-------------------------------------------------|
|-------------------------------------------------|
|-9--------12-11-9-7-5--------7----7--------------|
|-77777777-10-9--7-5-33333333-5-910---------------| x2
|-------------------------------------------------|
|-------------------------------------------------|  
   .......            .......

The 2nd time there comes in gtr2 with this:
gtr2
|-------------------------------------------------|
|-------------------------------------------------|
|-9~~~--9999999-----------------------------------|
|-------------------------------------------------|
|-------------------------------------------------|
|-------------------------------------------------|

gtr1
|----------------------------------------------------|
|----------------------------------------------------|
|-9----------------12-11-9-7-5----------------7----7-|
|-7-777-777-777-77-10-9--7-5-3-333-333-333-33-5-910--| x6
|----------------------------------------------------|
|----------------------------------------------------|  
    ... ... ... ..             ... ... ... ..

The 5th time there comes gtr2 with this:
gtr2
|---------------------------------------------------------------------|
|-13-12-10---13-12-10---13-12-10---13-10-13-10--13-12-10---13-10-13-10|
|----------9----------9----------9-----------------------9------------|
|---------------------------------------------------------------------| x2
|---------------------------------------------------------------------|
|---------------------------------------------------------------------|

gtr1
|-------------------------------|
|-------------------------------|
|-------------------------------|
|--10-9-7-----------------------| x2
|---------10-9-7----------------|
|----------------10-------------|

Verse:
gtr1
|---------------------------------------------------------------|
|---------------------------------------------------------------|
|---------------------------------------------------------------|
|--9--12--9--12--10-9-7-----------10-9-7-----------9--12--9--12-|
|--7--10--7--10---------10-9-7-----------10-9-7----7--10--7--10-|
|------------------------------10---------------10--------------|

gtr1
|----------------------------------|
|----------------------------------|
|----------------------------------|
|--9--7----------------5--12-11----| x4
|--7--5-555-555-555-55-3--10-9-----|
|----------------------------------|
        ... ... ... ..
gtr1
|----------------------------------|
|----------------------------------|
|----------------------------------|
|--10-9-7--10-9-7--10-9-7--7-------|
|----------------------------------|
|----------------------------------|

And now that cool clean part...
gtr1
|---------------------------------------|
|---------------------------------------|
|--99999999-5555555-9-7777777777777777--|
|--77777777-3333333-7-5555555555555555--| x5
|---------------------------------------|
|---------------------------------------|

gtr2
|------------------------------------------------------------------|
|------------------------------------------------------------------|
|------------------------------------------------------------------|
|-7-9-10-12-10-9--7-9-10--12-9-7-----9-10-12-10-9-----9-10-12-10-9-| x4
|---------------------------------10---------------10--------------|
|------------------------------------------------------------------|

gtr1
|------------------------|
|------------------------|
|---9---9---7---7--------|
|--7---5---5---5---------| x4
|------------------------|
|------------------------|

gtr2
|--------------------------------------------------------|
|--------------------------------------------------------|
|--------------------------------------------------------|
|--5/7--10-9-7-5-5/7----12-10-9--10-9-7--5-7-9--10-9-10--|
|--------------------------------------------------------|
|--------------------------------------------------------|

Bridge(i think)
gtr1
|---------------------------------------|
|---------------------------------------|
|--99999999-5555555-9-7777777777777777--|
|--77777777-3333333-7-5555555555555555--| x4
|---------------------------------------|
|---------------------------------------|

gtr2
|------------------------------------------------------------------|
|------------------------------------------------------------------|
|------------------------------------------------------------------|
|-7-9-10-12-10-9--7-9-10--12-9-7-----9-10-12-10-9-----9-10-12-10-9-| x4
|---------------------------------10---------------10--------------|
|------------------------------------------------------------------|

gtr1
|----------------------------------------------------|
|----------------------------------------------------|
|-9----------------12-11-9-7-5----------------7----7-|
|-7-777-777-777-77-10-9--7-5-3-333-333-333-33-5-910--| x4
|----------------------------------------------------|
|----------------------------------------------------|  
    ... ... ... ..             ... ... ... ..

gtr1
|----------------------------------------------------|
|----------------------------------------------------|
|-9------------------------------7-------------------|
|-7------------------------------5-------------------| x3
|----------------------------------------------------|
|----------------------------------------------------|

gtr2
|------------------------------------------------------------------|
|------------------------------------------------------------------|
|------------------------------------------------------------------|
|-7-9-10-12-10-9--7-9-10--12-9-7-----9-10-12-10-9-----9-10-12-10-9-| x4
|---------------------------------10---------------10--------------|
|------------------------------------------------------------------|

End with:
gtr1
|----------------------------------------------------|
|----------------------------------------------------|
|-9--------------------------------9/7---------------|
|-7--------------------------------7/5---------------| 
|----------------------------------------------------|
|----------------------------------------------------|

That's all...
            

comments powered by Disqus
↑ Back to top | 3 Inches Of Blood Tabs for Bloody Screams. Lyrics for acoustic guitar and electric guitar. Tablatures and chords are parodies/interpretations of the original songs. You may use it for private study, scholarship, research or language learning purposes only