» » »

3 Feet Smaller, Tonight Tabs (ver.1)

Artists:  A B C D E F G H I J K L M N O P Q R S T U V W X Y Z # 

Tonight Tabs (ver.1)

3 Feet Smaller Tabs
Rating:
4/5 (1 vote)
Hard to play? Try these video lessons and learn fast.
                >>Tonight<<

Hey!
I wrote this tab by watching live videos of this song!
Cuz it has not been released yet...
To get the right rythm to this tab, you should watch this video:

I love this Song!
And i love this band xP

-Stefan from Germany =)

Verse 1:
 Our melodies…             I’m almost…
E------------------------------------------------------|
B------------------------------------------------------|
G----------9----------9----------9-----------9------9--|
D-------7----------9----------7-----7-----7------9-----| (repeat 2x)
A----9----------7----------5-----------0------7--------|
E------------------------------------------------------|

Bridge:  (Beginn im Video bei 0:24)
     Catch my heart     when it’s about to fall…
E--------------------------------|
B--------------------------------|
G----------9------------------9--|
D-------7------------------9-----|  (repeat 2x)
A----5------------------7--------|
E--------------------------------|

Refrain:  (Beginn im Video bei 0:34)
Tonight…
E------------------------------------------------|
B------------------------------------------------|
G------------9----------9----------9----------9--|
D---------7----------7----------7----------9-----|
A------9----------5----------0----------7--------|
E------------------------------------------------|

Verse 2:  (Beginn im Video bei 0:45)
E------------------------------------------------------|
B------------------------------------------------------|
G----------9----------9----------9-----------9------9--|
D-------7----------9----------7-----7-----7------9-----| (repeat 3x)
A----9----------7----------5-----------0------7--------|
E------------------------------------------------------|

Bridge:   (Beginn im Video bei 1:15)
E------------------------|
B------------------------|
G----------9----------9--|
D-------7----------9-----|  (repeat 2x)
A----5----------7--------|
E------------------------|

Refrain:  (Beginn im Video bei 1:26)
E----------------------------------------------|
B----------------------------------------------|
G----------9----------9----------9----------9--|
D-------7----------7----------7----------9-----|  (repeat 2x)
A----9----------5----------0----------7--------|
E----------------------------------------------|

Überleitung:   (Beginn im Video bei 1:47)
E------------------------------------------------------|
B------------------------------------------------------|
G----------9----------9----------9-----------9------9--|
D-------7----------9----------7-----7-----7------9-----|
A----9----------7----------5-----------0------7--------|
E------------------------------------------------------|

E---------------------------------------------------------------------------|
B----------------10-9---9-9-9-9-10-10-10-10-10-10-10-10-9-9-9-9-10-10-10-10-|
G----------9---------9—-9-9-9-9-9—-9—-9—-9—-9--9—-9--9—-9-9-9-9-9—-9—-9--9--|
D-------7-------------------------------------------------------------------|
A----9----------------------------------------------------------------------|
E---------------------------------------------------------------------------|
                                Catch my life when it’s about to fall…
E-----------------------------------------------------------------------|
B-9-9-9-9—-12-12-12-12-12-12--------------------------------------------|
G-9-9-9-9—-9—-9—-9—-9—-9—-9-----9/------------------------9/------------|
D-------------------------------7/------------------------9/------------|
A-------------------------------5/------------------------7/------------|
E-----------------------------------------------------------------------|
     Make me feel like I’m something’s bad show…
E----------------------------------------|
B----------------------------------------|
G----9/------------------------9/--------|
D----7/------------------------9/--------|
A----5/------------------------7/--------|
E----------------------------------------|

Refrain:  (Beginn im Video bei 2:18)
E----------------------------------------------|
B----------------------------------------------|
G----------9----------9----------9----------9--|
D-------7----------7----------7----------9-----|  (repeat 2x)
A----9----------5----------0----------7--------|
E----------------------------------------------|

E----0/----------------------------------|
B----0/----------------------------------|
G----9/----------------------------------|
D----7/-------(Jetzt nur noch Gesang)----|
A----0/----------------------------------|
E----0/----------------------------------|


Outro:  (Beginn bei 3:05)…(Das geilste am Song xP)

      Yesterday, we cursed today     Tomorrooow, it’s all the saaaaaame
E----x>-----x>------x>-------x>--------x>--x>-----------------x>--x>--|
B----x>-----x>------x>-------x>--------x>--x>-----------------x>--x>--|
G----9>-----9>------9>-------9>--------9>--9>-----------------9>--9>--|
D----7>-----9>------7>-------9>--------7>--9>-----------------7>--7>--| (2x)
A----0>-----7>------5>-------7>--------0>--7>-----------------5>--0>--|
E----0>-----0>------0>-------0>--------0>--0>-----------------0>--0>--|


And now just play this :

E----x---|
B----x---|
G----9---|
D----7---|
A----0---|
E----0---|


--> I'm sorry that some texts in the tab are german...but i'm too lazy to change it xP
            

comments powered by Disqus
↑ Back to top | 3 Feet Smaller Tabs for Tonight. Lyrics for acoustic guitar and electric guitar. Tablatures and chords are parodies/interpretations of the original songs. You may use it for private study, scholarship, research or language learning purposes only