» » »

S U Double Fer Tabs (ver.1)

Artists:  A B C D E F G H I J K L M N O P Q R S T U V W X Y Z # 

S U Double Fer Tabs (ver.1)

3 Feet Smaller
Rating:
0/5 (0 votes)

Hard to play? Try these video lessons and learn fast.
                

.:Intro:.
e|---------------------------------------------------------------------------------|x1
H|---------------------------------------------------------------------------------|
G|--------------------------44-----------------------------------------------------|
D|--4444-2-2-44----4444-2-2-44-----------------------------------------------------|
A|--4444-2-2-44----4444-2-2-22-----------------------------------------------------|
E|--2222-0-0-22----2222-0-0--------------------------------------------------------|

P.M.--------------------------

.:Verse:.
e|---------------------------------------------------------------------------------|x4
H|---------------------------------------------------------------------------------|
G|--------------------------44-----------------------------------------------------|
D|--4444-2-2-44----4444-2-2-44-----------------------------------------------------|
A|--4444-2-2-44----4444-2-2-22-----------------------------------------------------|
E|--2222-0-0-22----2222-0-0--------------------------------------------------------|

P.M.--------------------------
     
                            
.:Ref:.
e|---------------------------------------------------------------------------------|x2
H|---------------------------------------------------------------------------------|
G|--6666666644444444---------------------------------------------------------------|
D|--6666666644444444--444432--444432-----------------------------------------------|
A|--4444444422222222--444432--444432-----------------------------------------------|
E|--------------------222210--222210-----------------------------------------------|


.:Ref:.
e|---------------------------------------------------------------------------------|x1
H|---------------------------------------------------------------------------------|
G|--6666666644444444------------------6666666644444444-----------------------------|
D|--66666666444444444444444477777777--6666666644444444--444432--444432-------------|
A|--44444444222222224444444477777777--4444444422222222--444432--444432-------------|
E|------------------2222222255555555--------------------222210--222210-------------|



.:Bridge:.
e|---------------------------------------------------------------------------------|x1
H|---------------------------------------------------------------------------------|
G|---------------------------------------------------------------------------------|
D|---------------------------------------------------------------------------------|
A|----------2-00----------2-11111--------------------------------------------------|
E|--22222-0-------22222-0----------------------------------------------------------|



.:Bridge (Background):.
e|---------------------------------------------------------------------------------|x1
H|---------------------------------------------------------------------------------|
G|--------------------------44-----------------------------------------------------|
D|--4444-2-2-44----4444-2-2-44-----------------------------------------------------|
A|--4444-2-2-44----4444-2-2-22-----------------------------------------------------|
E|--2222-0-0-22----2222-0-0--------------------------------------------------------|

P.M.--------------------------


.:Verse 2:.
e|---------------------------------------------------------------------------------|x4
H|---------------------------------------------------------------------------------|
G|--------------------------44-----------------------------------------------------|
D|--4444-2-2-44----4444-2-2-44-----------------------------------------------------|
A|--4444-2-2-44----4444-2-2-22-----------------------------------------------------|
E|--2222-0-0-22----2222-0-0--------------------------------------------------------|

P.M.--------------------------


.:Ref:.
e|---------------------------------------------------------------------------------|x2
H|---------------------------------------------------------------------------------|
G|--6666666644444444---------------------------------------------------------------|
D|--6666666644444444--444432--444432-----------------------------------------------|
A|--4444444422222222--444432--444432-----------------------------------------------|
E|--------------------222210--222210-----------------------------------------------|


.:Ref:.
e|---------------------------------------------------------------------------------|x1
H|---------------------------------------------------------------------------------|
G|--6666666644444444------------------6666666644444444-----------------------------|
D|--66666666444444444444444477777777--6666666644444444--444432--444432-------------|
A|--44444444222222224444444477777777--4444444422222222--444432--444432-------------|
E|------------------2222222255555555--------------------222210--222210-------------|



.:Bridge:.
e|---------------------------------------------------------------------------------|x6
H|---------------------------------------------------------------------------------|
G|---------------------------------------------------------------------------------|
D|---------------------------------------------------------------------------------|
A|----------2-00----------2-11111--------------------------------------------------|
E|--22222-0-------22222-0----------------------------------------------------------|



.:Ref:.
e|---------------------------------------------------------------------------------|x2
H|---------------------------------------------------------------------------------|
G|--6666666644444444---------------------------------------------------------------|
D|--6666666644444444--444432--444432-----------------------------------------------|
A|--4444444422222222--444432--444432-----------------------------------------------|
E|--------------------222210--222210-----------------------------------------------|
P.M.----------------



.:Ref:.
e|---------------------------------------------------------------------------------|x1
H|---------------------------------------------------------------------------------|
G|--6666666644444444------------------6666666644444444-----------------------------|
D|--66666666444444444444444477777777--6666666644444444--444432--444432-------------|
A|--44444444222222224444444477777777--4444444422222222--444432--444432-------------|
E|------------------2222222255555555--------------------222210--222210-------------|



.:Outro:.
e|---------------------------------------------------------------------------------|x4
H|---------------------------------------------------------------------------------|
G|---------------------------------------------------------------------------------|
D|--444432--444432-----------------------------------------------------------------|
A|--444432--444432-----------------------------------------------------------------|
E|--222210--222210-----------------------------------------------------------------|
            
Hard to play? Try these video lessons and learn fast. | Correct




comments powered by Disqus
↑ Back to top | Tablatures and chords are parodies/interpretations of the original songs. You may use it for private study, scholarship, research or language learning purposes only