» » »

3 Feet Smaller, Lie Baby, Lie Tabs (ver.1)

Artists:  A B C D E F G H I J K L M N O P Q R S T U V W X Y Z # 

Lie Baby, Lie Tabs (ver.1)

3 Feet Smaller Tabs
 Rating:
4/5 (4 votes)
Lie Baby, Lie lessons Tabs too difficult? Try these video lessons and learn fast
                





Intro/Verse:

e||---5-5-5-555-5-5--55---7-7-7-777-7-7-77---5-5-5-555-5-5--55---7-7-7-777-7-7-77---||
B||---5-5-5-555-5-5--55---7-7-7-777-7-7-77---5-5-5-555-5-5--55---7-7-7-777-7-7-77---||
G||---5-5-5-555-5-5--55---9-9-9-999-9-9-99---5-5-5-555-5-5--55---7-7-7-777-7-7-77---||
D||---7-7-7-777-7-7--77---9-9-9-999-9-9-99---7-7-7-777-7-7--77---9-9-9-999-9-9-99---||
A||---7-7-7-777-7-7--77---7-7-7-777-7-7-77---7-7-7-777-7-7--77---9-9-9-999-9-9-99---||
E||---5-5-5-555-5-5--55---x-x-x-xxx-x-x-xx---5-5-5-555-5-5--55---x-x-x-xxx-x-x-xx---||

e||---5-5-5-55---7-7-7-77---5-5-5-55---7-7-7-77---5-5-5-555-5-5-55---5-5-5-55-5-5-5-55---||
B||---5-5-5-55---7-7-7-77---5-5-5-55---7-7-7-77---5-5-5-555-5-5-55---6-6-6-66-6-6-6-66---||
G||---7-7-7-77---9-9-9-99---7-7-7-77---9-9-9-99---7-7-7-777-7-7-77---7-7-7-77-7-7-7-77---||
D||---7-7-7-77---9-9-9-99---7-7-7-77---9-9-9-99---7-7-7-777-7-7-77---7-7-7-77-7-7-7-77---||
A||---5-5-5-55---7-7-7-77---5-5-5-55---7-7-7-77---5-5-5-555-5-5-55---5-5-5-55-5-5-5-55---||
E||---x-x-x-xx---x-x-x-xx---x-x-x-xx---x-x-x-xx---x-x-x-xxx-x-x-xx---x-x-x-xx-x-x-x-xx---||





Chorus

e||---5-5-5-5---0-0-0-0---5-5-5-5---0-0-0-0---2-2-2-2---0-0-0-0---5-5-5-5---7-7-7-7---||
B||---5-5-5-5---0-0-0-0---5-5-5-5---0-0-0-0---2-2-2-2---0-0-0-0---5-5-5-5---7-7-7-7---||
G||---5-5-5-5---0-0-0-0---7-7-7-7---0-0-0-0---2-2-2-2---0-0-0-0---7-7-7-7---9-9-9-9---|| 2x
D||---7-7-7-7---2-2-2-2---7-7-7-7---2-2-2-2---4-4-4-4---2-2-2-2---7-7-7-7---9-9-9-9---||
A||---7-7-7-7---2-2-2-2---5-5-5-5---2-2-2-2---4-4-4-4---2-2-2-2---5-5-5-5---7-7-7-7---||
E||---5-5-5-5---0-0-0-0---x-x-x-x---0-0-0-0---2-2-2-2---0-0-0-0---x-x-x-x---x-x-x-x---||


e||---5-5-5-5-5-5---7-7---||
B||---5-5-5-5-5-5---7-7---||
G||---5-5-5-5-5-5---9-9---||
D||---7-7-7-7-7-7---9-9---||
A||---7-7-7-7-7-7---7-7---||
E||---5-5-5-5-5-5---x-x---||



VERSE




CHORUS




Bridge:

e||---2-2-2-2-2-2---0-0---5-5-5-5-5-5-5-5---2-2-2-2-2-2---0-0---5-5-5-5---7-7-7-7||
B||---2-2-2-2-2-2---0-0---5-5-5-5-5-5-5-5---2-2-2-2-2-2---0-0---5-5-5-5---7-7-7-7||
G||---2-2-2-2-2-2---0-0---5-5-5-5-5-5-5-5---2-2-2-2-2-2---0-0---7-7-7-7---9-9-9-9||
D||---4-4-4-4-4-4---2-2---7-7-7-7-7-7-7-7---4-4-4-4-4-4---2-2---7-7-7-7---9-9-9-9||
A||---4-4-4-4-4-4---2-2---7-7-7-7-7-7-7-7---4-4-4-4-4-4---2-2---5-5-5-5---7-7-7-7||
E||---2-2-2-2-2-2---0-0---5-5-5-5-5-5-5-5---2-2-2-2-2-2---0-0---x-x-x-x---x-x-x-x||

e||---5-5-5-555-5-5--55---7-7-7-777-7-7-77---5-5-5-555-5-5--55---7-7-7-777-7-7-77---||
B||---5-5-5-555-5-5--55---7-7-7-777-7-7-77---5-5-5-555-5-5--55---7-7-7-777-7-7-77---||
G||---5-5-5-555-5-5--55---9-9-9-999-9-9-99---5-5-5-555-5-5--55---7-7-7-777-7-7-77---||
D||---7-7-7-777-7-7--77---9-9-9-999-9-9-99---7-7-7-777-7-7--77---9-9-9-999-9-9-99---||
A||---7-7-7-777-7-7--77---7-7-7-777-7-7-77---7-7-7-777-7-7--77---9-9-9-999-9-9-99---||
E||---5-5-5-555-5-5--55---x-x-x-xxx-x-x-xx---5-5-5-555-5-5--55---x-x-x-xxx-x-x-xx---||

e||---5-5-5-55---7-7-7-77---5-5-5-55---7-7-7-77---5-5-5-555-5-5-55---5-5-5-55-5-5-5-55---||
B||---5-5-5-55---7-7-7-77---5-5-5-55---7-7-7-77---5-5-5-555-5-5-55---6-6-6-66-6-6-6-66---||
G||---7-7-7-77---9-9-9-99---7-7-7-77---9-9-9-99---7-7-7-777-7-7-77---7-7-7-77-7-7-7-77---||
D||---7-7-7-77---9-9-9-99---7-7-7-77---9-9-9-99---7-7-7-777-7-7-77---7-7-7-77-7-7-7-77---||
A||---5-5-5-55---7-7-7-77---5-5-5-55---7-7-7-77---5-5-5-555-5-5-55---5-5-5-55-5-5-5-55---||
E||---x-x-x-xx---x-x-x-xx---x-x-x-xx---x-x-x-xx---x-x-x-xxx-x-x-xx---x-x-x-xx-x-x-x-xx---||




CHORUS



End:

e||---5-5-5-555-5-5--55---7-7-7-777-7-7-77---5-5-5-555-5-5--55---7-7-7-777-7-7-77---5--------||
B||---5-5-5-555-5-5--55---7-7-7-777-7-7-77---5-5-5-555-5-5--55---7-7-7-777-7-7-77---5--------||
G||---5-5-5-555-5-5--55---9-9-9-999-9-9-99---5-5-5-555-5-5--55---7-7-7-777-7-7-77---7--------||
D||---7-7-7-777-7-7--77---9-9-9-999-9-9-99---7-7-7-777-7-7--77---9-9-9-999-9-9-99---7--------||
A||---7-7-7-777-7-7--77---7-7-7-777-7-7-77---7-7-7-777-7-7--77---9-9-9-999-9-9-99---5--------||
E||---5-5-5-555-5-5--55---x-x-x-xxx-x-x-xx---5-5-5-555-5-5--55---x-x-x-xxx-x-x-xx---x--------||






© MaestroMing
            
Submit corrections

comments powered by Disqus
↑ Back to top | 3 Feet Smaller Tabs for Lie Baby, Lie. Lyrics for acoustic guitar and electric guitar. Tablatures and chords are parodies/interpretations of the original songs. You may use it for private study, scholarship, research or language learning purposes only