>
 >
Lead Or Follow

Lead Or Follow Guitar Tabs

3 Feet Smaller - Lead Or Follow chords, tabs, tablatures, lyrics

Guitar lessons | Add/correct | Request | Top 50 tabs Artists:  A B C D E F G H I J K L M N O P Q R S T U V W X Y Z 0-9

Lead Or Follow Guitar Tabs – 3 Feet Smaller

CD, Sheet music, Poster

Do you like Lead Or Follow? Share with your friends now
Tabs
Band:  3 Feet Smaller


Tuning: Drop D



pls sent me a message if you have any questions or suggestions :)



Intro:

e|----------------------------------------------------------------------------------------|
B|---------------------------------------------------------10-10-10-8-7-----7-------7-----|
G|------------------11-11-11-11-11-11-11---9-9-9---7-7-7----------------7-9---9-7-9---9---|
D|------------------11-11-11-11-11-11-11---9-9-9---7-7-7----------------------------------|
A|------------------9--9--9--9--9--9--9----7-7-7---5-5-5----------------------------------|
D|>>> Pickslide --------------------------------------------------------------------------|



e|-------------------------------------------------------------------------|
B|-------------------- ---------------------10-10-10-8-7-----7-------7-----|
G|---11-11-11-11-11-11-11---9-9-9---7-7-7----------------7-9---9-7-9---9---|
D|---11-11-11-11-11-11-11---9-9-9---7-7-7----------------------------------|
A|---9--9--9--9--9--9--9----7-7-7---5-5-5----------------------------------|
D|-------------------------------------------------------------------------|


Bride:

e|------------------------------------|
B|------------------------------------|
G|---4--------------------------------|  2x
D|---4--4 . . .-------------2 . . .---|
A|---2--2 . . .---5 . . .---0 . . .---|
D|----------------5 . . .-------------|
PM      . . . .   . . . .   . . . .


Prechorus:

e|-------------------------------------------------|
B|-------------------------------------------------|
G|-------4---4---4---4-----------------2---2---2---| 2x
D|---4-4-4-4-4-4-4-4-4-------5---5-----2-2-2-2-2---|
A|---2-2-2-2-2-2-2-2-2---5-5-5-5-5-5---0-0-0-0-0---|
D|-----------------------5-5-5-5-5-5---------------|
PM   . .   .   .   .     . .   .   .     .   .



e|--------------------x-x-x-x---|
B|---------7~-5~------x-x-x-x---|
G|------7~-------6~---x-x-x-x---|
D|--------------------x-x-x-x---|
A|--------------------x-x-x-x---|
D|--------------------x-x-x-x---|

     


Chorus:

Gtr I

e|-------------------------------------------|
B|-------------------------------------------|
G|---4 . . .-----------------------2 . . .---|2x
D|---4 . . .---5 . . .---0 . . .---2 . . .---|
A|---2 . . .---5 . . .---0 . . .---0 . . .---|
D|-------------5 . . .---0 . . .-------------|


Gtr II

e|-----------------------------------------------------|
B|-----------------------------------------------------|
G|---16 . . . . . . . . .---6--9--12--11--9--6 . . .---|2x
D|---x  . . . . . . . . .---x--x--x --x --x--x . . .---|
A|---14 . . . . . . . . .---4--7--10--9---7--4 . . .---|
D|-----------------------------------------------------|


Intro:

e|-------------------------------------------------------------------------|
B|-------------------- ---------------------10-10-10-8-7-----7-------7-----|
G|---11-11-11-11-11-11-11---9-9-9---7-7-7----------------7-9---9-7-9---9---| 2x
D|---11-11-11-11-11-11-11---9-9-9---7-7-7----------------------------------|
A|---9--9--9--9--9--9--9----7-7-7---5-5-5----------------------------------|
D|-------------------------------------------------------------------------|


Bridge I:

e|--------|
B|--------|
G|---4~---|
D|---4~---|
A|---2~---|
D|--------|



e|------------------------------------|
B|------------------------------------|
G|---4--------------------------------|
D|---4--4 . . .-------------2 . . .---|
A|---2--2 . . .---5 . . .---0 . . .---|
D|----------------5 . . .-------------|
PM      . . . .   . . . .   . . . .

Prechorus:

e|------------------------------------------------------|
B|------------------------------------------------------|
G|---4--4--4--4--4--4--4--4----------------2--2--2--2---| 2x
D|---4--4--4--4--4--4--4--4---5--5--5--5---2--2--2--2---|
A|---2--2--2--2--2--2--2--2---5--5--5--5---0--0--0--0---|
D|----------------------------5--5--5--5----------------|




e|------------------------------------7-7-7-7-|
B|------7~-5~----8~-7~-5~---------------------|
G|---7~-------6~----------7~-4~-6~-7~---------|
D|--------------------------------------------|
A|--------------------------------------------|
D|--------------------------------------------|



Chorus:

Gtr I

e|-------------------------------------------|
B|-------------------------------------------|
G|---4 . . .-----------------------2 . . .---|2x
D|---4 . . .---5 . . .---0 . . .---2 . . .---|
A|---2 . . .---5 . . .---0 . . .---0 . . .---|
D|-------------5 . . .---0 . . .-------------|


Gtr II

e|-----------------------------------------------------|
B|-----------------------------------------------------|
G|---16 . . . . . . . . .---6--9--12--11--9--6 . . .---|2x
D|---x  . . . . . . . . .---x--x--x --x---x--x . . .---|
A|---14 . . . . . . . . .---4--7--10--9---7--4 . . .---|
D|-----------------------------------------------------|


Bridge II:

e|--------------------------------------------------------------|
B|--------------------------------------------------------------|
G|--------------------------------------------------------------|
D|--------------------------------------------------------------|
A|-------9-----9-----9-----9-----10-----10-----12-----12-9b10---|
D|---9-9---9-9---9-9---9-9---9-9----9-9----9-9----9-9-----------|
PM   . .   . .   . .   . .   . .    . .    . .    . .  



e|-------------------------------------------------------|
B|-------------------------------------------------------|
G|-------------------------------------------------------|
D|-------------------------------------------------------|
A|-------9-----9-----9-----9-----10-----10-----7-----7---|
D|---9-9---9-9---9-9---9-9---9-9----9-9----9-9----9-9----|
PM   . .   . .   . .   . .   . .    . .    . .    . .  



Chorus:

Gtr I

e|---------------------------------------------------------|
B|---------------------------------------------------------|
G|-----------------4 . . .-----------------------2 . . .---|2x
D|-----------------4 . . .---5 . . .---0 . . .---2 . . .---|
A|-----------------2 . . .---5 . . .---0 . . .---0 . . .---|
D|>>> Pickslide -------------5 . . .---0 . . .-------------|


Gtr II

e|-----------------------------------------------------|
B|-----------------------------------------------------|
G|---16 . . . . . . . . .---6--9--12--11--9--6 . . .---|2x
D|---x  . . . . . . . . .---x--x--x --x --x--x . . .---|
A|---14 . . . . . . . . .---4--7--10--9---7--4 . . .---|
D|-----------------------------------------------------|


Intro:

e|-----------------------------------------------------------------------|
B|------------------ ---------------------10-10-10-8-7-----7-------7-----|
G|-11-11-11-11-11-11-11---9-9-9---7-7-7----------------7-9---9-7-9---9---| 2x
D|-11-11-11-11-11-11-11---9-9-9---7-7-7----------------------------------|
A|-9--9--9--9--9--9--9----7-7-7---5-5-5----------------------------------|
D|-----------------------------------------------------------------------|



e|---------------------------------------------------------|
B|-------------------- ---------------------10-10-10-8-7---|
G|---11-11-11-11-11-11-11---9-9-9---7-7-7------------------| 2x
D|---11-11-11-11-11-11-11---9-9-9---7-7-7------------------|
A|---9--9--9--9--9--9--9----7-7-7---5-5-5------------------|
D|---------------------------------------------------------|



b   = bend
PM .= Palm Muted
~   = let ring
... = play by ear





Comments


Popular 3 Feet Smaller tabs & chords
Punk Bass Tabs
Suffocate Me Bass Tabs
One Night Stand Chords
Tonight Chords
Reason Unknown 1 Tabs
Scared Tabs
See You In Hell Intro Tabs
Adorable Ukulele
Angelstar Ukulele
Eternity Ukulele


Song lyrics



↑ Back to top | Tablatures and chords are parodies/interpretations of the original songs. You may use it for private study, scholarship, research or language learning purposes only
© 2014 AZChords.com Contact us | Privacy policy | DMCA | Add/correct tabs | Request tabs | Top 50 tabs