» » »

3 Feet Smaller, Fade Away Tabs (ver.1)

Artists:  A B C D E F G H I J K L M N O P Q R S T U V W X Y Z # 

Fade Away Tabs (ver.1)

3 Feet Smaller Tabs
 Rating:
4.2/5 (5 votes)
Fade Away lessons Tabs too difficult? Try these video lessons and learn fast
                -------------------------------------------------------------------------------
                             Fade Away (live) - 3 Feet Smaller
-------------------------------------------------------------------------------

Tuning: Standard Tuning
Intro 1    4x
e|--------------------------------------------------|
B|-----6-----6-----6-----6-----6-----6-----6-----6--|
G|--7-----7-----------------5-----5-----5-----5-----|
D|--------------8-----8-----------------------------|
A|--------------------------------------------------|
E|--------------------------------------------------|
Intro 2    4x
e|--------------------------------------------------|
B|--------------------------------------------------|
G|--7--7--7--7--------------------------------------|
D|--7--7--7--7--8--8--8--8--3--3--3--3--3--3--3--3--|
A|--5--5--5--5--8--8--8--8--3--3--3--3--3--3--3--3--|
E|--------------6--6--6--6--1--1--1--1--1--1--1--1--|

e|--------------------------------------------------|
B|--------------------------------------------------|
G|--7--7--7--7--------------------------------------|
D|--7--7--7--7--8--8--8--8--5--5--5--5--5--5--5--5--|
A|--5--5--5--5--8--8--8--8--5--5--5--5--5--5--5--5--|
E|--------------6--6--6--6--3--3--3--3--3--3--3--3--|
Vers:

D         B         F
The Situation´s critical
D         B         F
Pleasure and pain combined
D         B         F
life´s passing by in front of my eyes
D         B         F
can´t wait to see the light
D         B         F
somehow I´m nervous, it isn´t that worse
D         B         F
as everyone said it would be
    D              B
I´m falling apart
       F
I´m feeling my heart
D         B         F
closer than ever before
C
creeping on the floor
D       B  D       B
I´m dying, I'm dying

Chorus:

F        C   D          B
we all know, we break down slow
F        C   D          B
we all know, we break down slow

Vers 2:
(Intro Riff Palm Muted)
e|--------------------------------------------------|
B|-----6-----6-----6-----6-----6-----6-----6-----6--|
G|--7-----7-----------------5-----5-----5-----5-----|
D|--------------8-----8-----------------------------|
A|--------------------------------------------------|
E|--------------------------------------------------|

Die Lage hier eskaliert
Ich fühl mich einfach leer
das Leben läuft an mir vorbei, die Augenlider schwer
Irgendwie bin ich nervös und verkrampft ich dreh mich im Kreis herum und die Zeit 
zu schnell um zu sehen, was ich jetzt wirklich kann,
C
was ich wirklich kann
D        B  D        B      B
nicht gehn, nicht gehn, von hier

Chorus 2:

F        C   D          B
we all know, we break down slow
F        C   D          B
we all know, we break down slow

Bridge:

B                  F
die Zeit vergeht slow
B            F
I fade away slow
B           F
die Zeit vergeht
B       F
I fade away
B           F
die Zeit vergeht
B      C
I fade away

Chorus 2:

F        C   D          B
we all know, we break down slow
F        C   D          B
we all know, we break down slow
F        C   D          B
we all know, we break down slow
F        C   D          B
we all know, we break down slow

End with a F or a D


| /  slide up
| \  slide down
| h  hammer-on
| p  pull-off
| ~  vibrato
| +  harmonic
| x  Mute note
===============================================================================
            
Submit corrections

comments powered by Disqus
↑ Back to top | 3 Feet Smaller Tabs for Fade Away. Lyrics for acoustic guitar and electric guitar. Tablatures and chords are parodies/interpretations of the original songs. You may use it for private study, scholarship, research or language learning purposes only