» » »

3 Feet Smaller, Alone In The Dark Tabs (ver.1)

Artists:  A B C D E F G H I J K L M N O P Q R S T U V W X Y Z # 

Alone In The Dark Tabs (ver.1)

3 Feet Smaller Tabs
 Rating:
4.2/5 (5 votes)
Alone In The Dark lessons Tabs too difficult? Try these video lessons and learn fast
1
                -------------------------------------------------------------------------------
-------------------------------------------------------------------------------

Tuning:Drop D

Guitar 1
Intro(0:00 - 0:17)
e|--------------------------------|
B|--------------------------------|
G|--------------------------------| 6x
D|--------------------------------|
A|--------------------------------|
D|3-3-3-7-7-7-8-8-8-7-7-7-3-3-2-2-|
Or(Wich ever seems easier to play)
e|--------------------------------|
B|--------------------------------|
G|--------------------------------| 6x
D|--------------------------------|
A|------0-0-0-1-1-1-0-0-0---------|
D|3-3-3-------------------3-3-2-2-|

Guitar 2
Intro(0:07 - 0:17)
e|------------------------------------------------|
B|------------------------------------------------|
G|10-10-10-10-10-10-10-10-10-10-10-10-10-10-10-10-| 4z
D|x--x--x--x--x--x--x--x--x--x--x--x--x--x--x--x--|
A|8--8--8--8--8--8--8--8--8--8--8--8--8--8--8--8--|
D|------------------------------------------------|

End on(0:17 - 0:38)
Guitar 1
e|------------------------------------------------|
B|------------------------------------------------|
G|------------------------------------------------|
D|------------------------------------------------|
A|------------------------------------------------|
D|0-Let Ring--------------------------------------|

Guitar 2
e|------------------------------------------------|
B|------------------------------------------------|
G|7-----------------------------------------------|
D|x----Let Ring-----------------------------------|
A|5-----------------------------------------------|
D|------------------------------------------------|

Chorus (0:38 - 1:02)
Guitar 1
e|--------------------------------|--------------------------------|
B|--------------------------------|--------------------------------|
G|--------------------------------|5-5-5-5-5-5-5-5-5-5-5-5-5-5-5-5-|
D|3-3-3-3-3-3-3-3-3-3-3-3-3-3-3-3-|5-5-5-5-5-5-5-5-5-5-5-5-5-5-5-5-|
A|3-3-3-3-3-3-3-3-3-3-3-3-3-3-3-3-|3-3-3-3-3-3-3-3-3-3-3-3-3-3-3-3-|
D|3-3-3-3-3-3-3-3-3-3-3-3-3-3-3-3-|--------------------------------|

e|--------------------------------|
B|--------------------------------|
G|3-3-3-3-3-3-3-3-3-3-3-3-3-3-3-3-|
D|3-3-3-3-3-3-3-3-3-3-3-3-3-3-3-3-|
A|1-1-1-1-1-1-1-1-1-1-1-1-1-1-1-1-|
D|--------------------------------|

Guitar 2 (Let Ring)
e|1---------------1---------------|0---------------0---------------|
B|------1---------------1---------|------1---------------1---------|
G|------------2---------------2---|------------2---------------2---|
D|--------------------------------|--------------------------------|
A|--------------------------------|--------------------------------|
D|--------------------------------|--------------------------------|

e|1---------------1---------------|
B|------1---------------1---------|
G|------------2---------------2---|
D|--------------------------------|
A|--------------------------------|
D|--------------------------------|
,,,,,,,,,,,,,,,,,,,,,,,,,,,,,,,,,,,,,,,,,,,,,,,,,,,,,,,,,,,,,,,,,,,,
Guitar 1
e|--------------------------------|
B|--------------------------------|
G|--------------------------------|
D|--------------------------------|
A|--------------------------------|
D|3-3-3-7-7-7-8-8-8-7-7-7-3-3-2-2-|

Guitar 2
e|------------------------------------------------|
B|------------------------------------------------|
G|10-10-10-10-10-10-10-10-10-10-10-10-10-10-10-10-|
D|x--x--x--x--x--x--x--x--x--x--x--x--x--x--x--x--|
A|8--8--8--8--8--8--8--8--8--8--8--8--8--8--8--8--|
D|------------------------------------------------|

Guitar 1
e|--------------------------------|--------------------------------|
B|--------------------------------|--------------------------------|
G|--------------------------------|5-5-5-5-5-5-5-5-5-5-5-5-5-5-5-5-|
D|3-3-3-3-3-3-3-3-3-3-3-3-3-3-3-3-|5-5-5-5-5-5-5-5-5-5-5-5-5-5-5-5-|
A|3-3-3-3-3-3-3-3-3-3-3-3-3-3-3-3-|3-3-3-3-3-3-3-3-3-3-3-3-3-3-3-3-|
D|3-3-3-3-3-3-3-3-3-3-3-3-3-3-3-3-|--------------------------------|

e|--------------------------------|
B|--------------------------------|
G|3-3-3-3-3-3-3-3-3-3-3-3-3-3-3-3-|
D|3-3-3-3-3-3-3-3-3-3-3-3-3-3-3-3-|
A|1-1-1-1-1-1-1-1-1-1-1-1-1-1-1-1-|
D|--------------------------------|

Guitar 2 (Let Ring)
e|1---------------1---------------|0---------------0---------------|
B|------1---------------1---------|------1---------------1---------|
G|------------2---------------2---|------------2---------------2---|
D|--------------------------------|--------------------------------|
A|--------------------------------|--------------------------------|
D|--------------------------------|--------------------------------|

e|1---------------1---------------|
B|------1---------------1---------|
G|------------2---------------2---|
D|--------------------------------|
A|--------------------------------|
D|--------------------------------|
,,,,,,,,,,,,,,,,,,,,,,,,,,,,,,,,,,,,,,,,,,,,,,,,,,,,,,,,,,,,,,,,,,,,
Guitar 1
e|--------------------------------|
B|--------------------------------|
G|--------------------------------| 2x
D|--------------------------------|
A|--------------------------------|
D|3-3-3-7-7-7-8-8-8-7-7-7-3-3-2-2-|

Guitar 2
e|------------------------------------------------|
B|------------------------------------------------|
G|10-10-10-10-10-10-10-10-10-10-10-10-10-10-10-10-| 2x
D|x--x--x--x--x--x--x--x--x--x--x--x--x--x--x--x--|
A|8--8--8--8--8--8--8--8--8--8--8--8--8--8--8--8--|
D|------------------------------------------------|

End on(1:02 - 1:23)
Guitar 1
e|------------------------------------------------|
B|------------------------------------------------|
G|------------------------------------------------|
D|------------------------------------------------|
A|------------------------------------------------|
D|0-Let Ring--------------------------------------|

Guitar 2
e|------------------------------------------------|
B|------------------------------------------------|
G|7-----------------------------------------------|
D|x----Let Ring-----------------------------------|
A|5-----------------------------------------------|
D|------------------------------------------------|

Chorus (1:23 - 1:47)
Guitar 1
e|--------------------------------|--------------------------------|
B|--------------------------------|--------------------------------|
G|--------------------------------|5-5-5-5-5-5-5-5-5-5-5-5-5-5-5-5-|
D|3-3-3-3-3-3-3-3-3-3-3-3-3-3-3-3-|5-5-5-5-5-5-5-5-5-5-5-5-5-5-5-5-|
A|3-3-3-3-3-3-3-3-3-3-3-3-3-3-3-3-|3-3-3-3-3-3-3-3-3-3-3-3-3-3-3-3-|
D|3-3-3-3-3-3-3-3-3-3-3-3-3-3-3-3-|--------------------------------|

e|--------------------------------|
B|--------------------------------|
G|3-3-3-3-3-3-3-3-3-3-3-3-3-3-3-3-|
D|3-3-3-3-3-3-3-3-3-3-3-3-3-3-3-3-|
A|1-1-1-1-1-1-1-1-1-1-1-1-1-1-1-1-|
D|--------------------------------|

Guitar 2 (Let Ring)
e|1---------------1---------------|0---------------0---------------|
B|------1---------------1---------|------1---------------1---------|
G|------------2---------------2---|------------2---------------2---|
D|--------------------------------|--------------------------------|
A|--------------------------------|--------------------------------|
D|--------------------------------|--------------------------------|

e|1---------------1---------------|
B|------1---------------1---------|
G|------------2---------------2---|
D|--------------------------------|
A|--------------------------------|
D|--------------------------------|
,,,,,,,,,,,,,,,,,,,,,,,,,,,,,,,,,,,,,,,,,,,,,,,,,,,,,,,,,,,,,,,,,,,,
Guitar 1
e|--------------------------------|
B|--------------------------------|
G|--------------------------------|
D|--------------------------------|
A|--------------------------------|
D|3-3-3-7-7-7-8-8-8-7-7-7-3-3-2-2-|

Guitar 2
e|------------------------------------------------|
B|------------------------------------------------|
G|10-10-10-10-10-10-10-10-10-10-10-10-10-10-10-10-|
D|x--x--x--x--x--x--x--x--x--x--x--x--x--x--x--x--|
A|8--8--8--8--8--8--8--8--8--8--8--8--8--8--8--8--|
D|------------------------------------------------|

Guitar 1
e|--------------------------------|--------------------------------|
B|--------------------------------|--------------------------------|
G|--------------------------------|5-5-5-5-5-5-5-5-5-5-5-5-5-5-5-5-|
D|3-3-3-3-3-3-3-3-3-3-3-3-3-3-3-3-|5-5-5-5-5-5-5-5-5-5-5-5-5-5-5-5-|
A|3-3-3-3-3-3-3-3-3-3-3-3-3-3-3-3-|3-3-3-3-3-3-3-3-3-3-3-3-3-3-3-3-|
D|1-1-1-1-1-1-1-1-1-1-1-1-1-1-1-1-|--------------------------------|

e|--------------------------------|
B|--------------------------------|
G|3-3-3-3-3-3-3-3-3-3-3-3-3-3-3-3-|
D|3-3-3-3-3-3-3-3-3-3-3-3-3-3-3-3-|
A|1-1-1-1-1-1-1-1-1-1-1-1-1-1-1-1-|
D|--------------------------------|

Guitar 2 (Let Ring)
e|1---------------1---------------|0---------------0---------------|
B|------1---------------1---------|------1---------------1---------|
G|------------2---------------2---|------------2---------------2---|
D|--------------------------------|--------------------------------|
A|--------------------------------|--------------------------------|
D|--------------------------------|--------------------------------|
,,,,,,,,,,,,,,,,,,,,,,,,,,,,,,,,,,,,,,,,,,,,,,,,,,,,,,,,,,,,,,,,,,,,
e|1---------------1---------------|
B|------1---------------1---------|
G|------------2---------------2---|
D|--------------------------------|
A|--------------------------------|
D|--------------------------------|

Guitar 1
e|--------------------------------|
B|--------------------------------|
G|--------------------------------| 2x
D|--------------------------------|
A|--------------------------------|
D|3-3-3-7-7-7-8-8-8-7-7-7-3-3-2-2-|

Guitar 2
e|------------------------------------------------|
B|------------------------------------------------|
G|10-10-10-10-10-10-10-10-10-10-10-10-10-10-10-10-| 2x
D|x--x--x--x--x--x--x--x--x--x--x--x--x--x--x--x--|
A|8--8--8--8--8--8--8--8--8--8--8--8--8--8--8--8--|
D|------------------------------------------------|

Breakdown (1:47 - )

Guitar 1
e|------------------------------------------------|
B|------------------------------------------------|
G|------------------------------------------------|
D|------------------------------------------------|
A|------------------------------------------------|
D|0-Let Ring--------------------------------------|

Guitar 2
e|------------------------------------------------|
B|------------------------------------------------|
G|/5----------------------------------------------|
D|------------------------------------------------|
A|------------------------------------------------|
D|------------------------------------------------|

(1:52 - 2:46) Repeat Till Chorus

Guitar 2
e|--------------------------------|
B|--------------------------------|
G|5-5-5-5-5-5-5-5-5-5-5-5-5-5-5-5-|
D|x-x-x-x-x-x-x-x-x-x-x-x-x-x-x-x-|
A|3-3-3-3-3-3-3-3-3-3-3-3-3-3-3-3-|
D|--------------------------------|
PM. . . . . . . . . . . . . . . . 

e|------------------------------------------------|
B|------------------------------------------------|
G|10-10-10-10-10-10-10-10-10-10-10-10-10-10-10-10-|
D|x--x--x--x--x--x--x--x--x--x--x--x--x--x--x--x--|
A|8--8--8--8--8--8--8--8--8--8--8--8--8--8--8--8--|
D|------------------------------------------------|
PM.  .  .  .  .  .  .  .  .  .  .  .  .  .  .  . 

(2:03 - 2:46)

Guitar 1
e|------------------------------------------------|
B|------------------------------------------------|
G|------------------------------------------------| 8x
D|------------------------------------------------|
A|---------------------1-Let Ring-----------------|
D|0-Let Ring--------------------------------------|

Chorus 3x (2:46 - 3:31)
Guitar 1
e|--------------------------------|--------------------------------|
B|--------------------------------|--------------------------------|
G|--------------------------------|5-5-5-5-5-5-5-5-5-5-5-5-5-5-5-5-|
D|3-3-3-3-3-3-3-3-3-3-3-3-3-3-3-3-|5-5-5-5-5-5-5-5-5-5-5-5-5-5-5-5-|
A|3-3-3-3-3-3-3-3-3-3-3-3-3-3-3-3-|3-3-3-3-3-3-3-3-3-3-3-3-3-3-3-3-|
D|3-3-3-3-3-3-3-3-3-3-3-3-3-3-3-3-|--------------------------------|

e|--------------------------------|
B|--------------------------------|
G|3-3-3-3-3-3-3-3-3-3-3-3-3-3-3-3-|
D|3-3-3-3-3-3-3-3-3-3-3-3-3-3-3-3-|
A|1-1-1-1-1-1-1-1-1-1-1-1-1-1-1-1-|
D|--------------------------------|

Guitar 2 (Let Ring)
e|1---------------1---------------|0---------------0---------------|
B|------1---------------1---------|------1---------------1---------|
G|------------2---------------2---|------------2---------------2---|
D|--------------------------------|--------------------------------|
A|--------------------------------|--------------------------------|
D|--------------------------------|--------------------------------|

e|1---------------1---------------|
B|------1---------------1---------|
G|------------2---------------2---|
D|--------------------------------|
A|--------------------------------|
D|--------------------------------|
,,,,,,,,,,,,,,,,,,,,,,,,,,,,,,,,,,,,,,,,,,,,,,,,,,,,,,,,,,,,,,,,,,,,
Guitar 1
e|--------------------------------|
B|--------------------------------|
G|--------------------------------|
D|--------------------------------|
A|--------------------------------|
D|3-3-3-7-7-7-8-8-8-7-7-7-3-3-2-2-|

Guitar 2
e|------------------------------------------------|
B|------------------------------------------------|
G|10-10-10-10-10-10-10-10-10-10-10-10-10-10-10-10-|
D|x--x--x--x--x--x--x--x--x--x--x--x--x--x--x--x--|
A|8--8--8--8--8--8--8--8--8--8--8--8--8--8--8--8--|
D|------------------------------------------------|

End

Guitar 1
e|--------------------------------|
B|--------------------------------|
G|--------------------------------| 2x
D|--------------------------------|
A|--------------------------------|
D|3-3-3-7-7-7-8-8-8-7-7-7-3-3-2-2-|

Guitar 2
e|------------------------------------------------|
B|------------------------------------------------|
G|10-10-10-10-10-10-10-10-10-10-10-10-10-10-10-10-|
D|x--x--x--x--x--x--x--x--x--x--x--x--x--x--x--x--|
A|8--8--8--8--8--8--8--8--8--8--8--8--8--8--8--8--|
D|------------------------------------------------|

Fade Out
Guitar 2 (Let Ring)
e|0---------------0---------------|2---------------2---------------|
B|------1---------------1---------|------1---------------1---------|
G|------------2---------------2---|------------2---------------2---| 4x
D|--------------------------------|--------------------------------|
A|--------------------------------|--------------------------------|
D|--------------------------------|--------------------------------|

 
            
Submit corrections

comments powered by Disqus
↑ Back to top | 3 Feet Smaller Tabs for Alone In The Dark. Lyrics for acoustic guitar and electric guitar. 1 Tablatures and chords are parodies/interpretations of the original songs. You may use it for private study, scholarship, research or language learning purposes only