» » »

Adorable Chords (ver.1)

Artists:  A B C D E F G H I J K L M N O P Q R S T U V W X Y Z # 

Adorable Chords (ver.1)

3 Feet Smaller
Rating:
2/5 (1 vote)

Hard to play? Try these video lessons and learn fast.
                Hi :)
Just thought I submit my opinion of what this song is like, since I didnt like the
other tabs of this great song...
So I sat down and figued it out.
My first submission to this site.

Tuning: standard
Difficulty: eazy

Hope you think it fits just as much as I did, and have a great time playing it ;)

This song is pretty simple, because you allways keeping 2 fingers on the 5th and 6th 
og 3rd fret.
Rest of the work is ut to your empty fingers, so it's not a big deal fixing it!

Chords
e|--3------3------3-------3--------------------------------------|
B|--3------3------3-------3--------------------------------------|
G|--0------0------0-------2--------------------------------------|
D|--2------2------0-------0--------------------------------------|
A|--2------3------0-------0--------------------------------------|
E|----------------2-------2--------------------------------------|
    Em   Cadd9    G      D/F#

Because im so lazy i havent trown on the lyrics, but you can find these other plases on 

1  Verse
   Em - Cadd9 (X4)

2  Pre-coruse
   G - D/F# - Em
   G - D/F# - Cadd9

3  Chorus
   G - Cadd9 - G - D/F#
   G - Cadd9 - G - D/F#
   Em - Cadd9
   Em - Cadd9

4  e|--2------|
   B|---2-----|
   G|----0----|
   D|---------|
   A|---------|
   E|---------|

5  Verse
   Em - Cadd9 (x4)

6  Pre-chorus
   G - D/F# - Em
   G - D/F# - Cadd9

7  Chorus
   G - Cadd9 - G - D/F#
   G - Cadd9 - G - D/F#
   Em - Cadd9
   Em - Cadd9

8  Bridge
   Em - D/F# - G - D/F#
   Em - D/F# - G - D/F#
   Em - Cadd9 (x8)

9  Chorus
   G - Cadd9 - G - D/F# (x4)

10 Em - Cadd9 (x4)

11 G - D/F# - Em
   G - D/F# - Cadd9

Hope you liked it :)
Pease out
            
Hard to play? Try these video lessons and learn fast. | Correct




comments powered by Disqus
↑ Back to top | Tablatures and chords are parodies/interpretations of the original songs. You may use it for private study, scholarship, research or language learning purposes only