» » »

Your Arms Feel Like Home Bass tabs (ver.1)

Artists:  A B C D E F G H I J K L M N O P Q R S T U V W X Y Z # 

Your Arms Feel Like Home Bass tabs (ver.1)

3 Doors Down
Rating:
0/5 (0 votes)

Tabs too difficult? Try these video lessons and learn fast.
                3 Doors Down - Your Arms Feel Like Home

Standard tuning

The bass kicks in at the pre-chorus at around 0:25
G|---------|---------|
D|---------|---------|
A|---------|---------|
E|-1---3---|-5-------|  x2

Chorus  
G|------------|-----------|--------------|------------|
D|------------|-----------|--------------|------------|
A|------------|-0-0---0-2-|-3---3---3----|------------|
E|-1---1---1--|-----------|------------5-|-3---3---3--| x3

G|------------|-----------|--------------|---------|
D|------------|-----------|--------------|---------|
A|------------|-0-0---0-2-|-3---3---3----|---------|
E|-1---1---1--|-----------|------------5-|-3-------|


Verse (First two times no bass)
G|---------|----------|
D|---------|----------|
A|-3---2---|-0---0-0--|
E|---------|----------| x2

2nd Pre-chorus (Last bar has different rhythm, listen for it)
G|---------|----------|
D|---------|----------|
A|---------|----------|
E|-1---3---|-5---5-5--|  x2

Bridge  2:32
G|-------------|-------------|
D|-------------|-------------|
A|-------------|-------------|
E|-5---5-5-5-5-|-3---3-3-3-3-| x2

Chorus

Outro
G|---------|----------|
D|---------|----------|
A|-3---2---|-0--------|
E|---------|-----1----| x2

End on 
G|------|
D|------|
A|-3----|
E|------|
            
Tabs too difficult? Try these video lessons and learn fast.


comments powered by Disqus
↑ Back to top | Tablatures and chords are parodies/interpretations of the original songs. You may use it for private study, scholarship, research or language learning purposes only