>
 >
When Youre Young 1

When Youre Young 1 Guitar Tabs

3 Doors Down - When Youre Young 1 chords, tabs, tablatures, lyrics

Guitar lessons | Add/correct | Request | Top 50 tabs Artists:  A B C D E F G H I J K L M N O P Q R S T U V W X Y Z 0-9

When Youre Young 1 Guitar Tabs – 3 Doors Down

CD, Sheet music, Poster

Do you like When Youre Young 1? Share with your friends now
Bass TabsChordsTabsTabs v2Tabs v3Ukulele
-------------------------------------------------------------------------------
                  When You`re Young - 3 Doors Down
-------------------------------------------------------------------------------
Note: this is my first tab, but its pretty accurate, for most parts...

Tuning: Standard

intro:
e|---------------------------------------------------------------------------|
B|-------0h1---1---0h1---1---------0h1---1---3p1p0---------------------------|
G|-----2-----2---2-----2---0-----2-----2---2-------0---------0h2-------------|
D|---2-------------------------2---------------------2---0h2-----3-----------|
A|-0-------------------------3-------------------------0---------------------|
E|---------------------------------------------------------------------------|
                    G    G    C
e|------------------X----X----0---|------------------------------------------|
B|-1p0----0--0h1-0--3----3----1---|--------0h1---1---0h1---1---------0h1-----|
G|-----0------------0----0----0---|------2-----2---2-----2---0-----2---------|
D|------------------0----0----2---|----2-------------------------2-----------|
A|------------------2----2----3---|--0-------------------------3-------------|
E|------------------3----3----X---|------------------------------------------|
                                  ^from here----x2
e|--------------------------------X----X----0---|------1--1--1--1--1-----X---|
B|----1---0h1---1----------0h1-0--3----3----1---|-------3--3--3--2--2----3---|
G|--2---2-----2---0----0----------0----0----0---|--------2--2-----3--3---0---|
D|--------------------------------0----0----2---|------------------------0---|
A|------------------3-------------2----2----3---|------------------------2---|
E|--------------------------------3----3----X---|------------------------3---|
                                             x2-^-from here
e|---X---X--X-----0--0--0--0--0------0--0--0---|-----------------------------|
B|---3---3--3------2--2--2--2--2-----2--2--2---|--------0h1--------0h1-------|
G|---0---0--0-------2--2-----2--2----2--2--2---|------2-----2----2-----2-----|
D|---0---0--0------------------------2--2--2---|----2----------2-------------|
A|---2---2--2------------------------0--0--0---|--0--------------------------|
E|---3---3--3------------------------X--X--X---|-----------------------------|

e|---------------------------------------------------------------------------|
B|--------0h1----------------------------------------------------------------|
G|------2-----2--------------------------------------------------------------|
D|----2----------------------------------------------------------------------|
A|--0------------------------------------------------------------------------|
E|---------------------------------------------------------------------------|
verse:
e|---------------------------------------------------------------------------|
B|---------------------------------------------------------------------------|
G|---------5-5-5-------------------------------------------------------------| x2
D|---7-7---5-5-5---3-3---5-5---7-7---5-5-5--7--9--10\3-3---------------------|
A|---7-7---3-3-3---3-3---5-5---7-7---5-5-5--7--9--10\3-3---------------------|
E|---5-5-----------1-1---3-3---5-5---3-3-3--5--7---8\1-1---------------------|
'this part' is a bit inaccurate... =/
e|--------------------------------------------------------------X------------|
B|--0-0-1-1--1-0h1-0-1-1-----0h1-1-1-0h1-0-1-1------0h1-0h1-0---3------------|
G|-----------------------0---------------------2----------------0------------| x2
D|-------------------------2---------------------3--------------0------------|
A|-------------------------3---------------------3--------------2------------|
E|--------------------------------------------------------------3------------|
end of 'this part'

e|-1--1--1--1----------------------------------------------------------------|
B|---2--2--2-----------------------------------------------------------------|
G|--3--3--3------------------------------------------------------------------| after this
D|------------5--5--5--5--5--5--5-5-5-5--------------------------------------| play the verse
A|------------5--5--5--5--5--5--5-5-5-5--------------------------------------|
E|------------3--3--3--3--3--3--3-3-3-3--------------------------------------|

x8 = times 8 =/
e|---------------------------------------------------------------------------|
B|---------------------------------------------------------------------------|
G|--7-x8----x8--5-x8----x8---------------------------------------------------|
D|--7-----7-----5-----5------------------------------------------------------|
A|--5-----7-----3-----5------------------------------------------------------|
E|--5-----5-----3-----3------------------------------------------------------|
the second part of this is the  first two chords, but the rhythm.. you have to listen to..

e|---------------------------------------------------------------------------|
B|--------0h1-------0h1------------------------------------------------------|
G|------2-----2---2-----2----------------------------------------------------|
D|----2---------2---------7--7--7--7--7--7--7-7-7-7--------------------------|
A|--0---------------------7--7--7--7--7--7--7-7-7-7--------------------------|
E|------------------------5--5--5--5--5--5--5-5-5-5--------------------------|
EPIC SOLO theres an epic down-slide in the beginning that i cant pin down, i think its 
on the g string..
e|---------------------------------------------------------------------------|
B|-------------1---------------------3---------------------------------------|
G|-0h2-2-2-2-2---2-2-2-2-0h2-2-2-2-2---2-2-2-2-------------------------------|
D|---------------------------------------------------------------------------|
A|---------------------------------------------------------------------------|
E|---------------------------------------------------------------------------|
i could NOT figure out the rest of the solo, sorry.. but then you play the verse, 4 
times, then the part form the 577 to 355 then up and and a down-slide a few times. =/ then 
you play the all inaccurate 'this part'

hope you enjoy! ^.^
************************************

| /   slide up
| \   slide down
| h   hammer-on
| p   pull-off
| ~   vibrato
| +   harmonic
| x   Mute note
| b   Bend
| pb  Pre-bend
| br  Bend release
| pbr Pre-bend release
| brb Bend release bend

************************************





Comments


Popular 3 Doors Down tabs & chords
Smack Bass Tabs
Be Like That Chords
Story Of A Girl Chords
By My Side 5 Tabs
Duck And Run Tabs
Pop Song Tabs
The Road Im On Tabs
When I'm Gone 17 Tabs
She Is Love Ukulele
Story Of A Girl Ukulele


Song lyrics



↑ Back to top | Tablatures and chords are parodies/interpretations of the original songs. You may use it for private study, scholarship, research or language learning purposes only
© 2014 AZChords.com Contact us | Privacy policy | DMCA | Add/correct tabs | Request tabs | Top 50 tabs