» » »

When Its Over Tabs (ver.1)

Artists:  A B C D E F G H I J K L M N O P Q R S T U V W X Y Z # 

When Its Over Tabs (ver.1)

3 Doors Down
Rating:
0/5 (0 votes)

Hard to play? Try these video lessons and learn fast.
                Hey guys! This is the tabs for 3 Doors Down: When It's Over. It's my very first tab for 
2 years, so if you have any corrections, suggestions, or what ever you want to say to 
Enjoy!

Intro (Solo)
|---------------------------------------6/8-8~-10/11-11~--|
|--6/8~--6h8p6h8--6h8-9-8-6h8p6-4h6p4~--------------------|
|---------------------------------------------------------|
|---------------------------------------------------------|
|---------------------------------------------------------|
|---------------------------------------------------------|

Intro(Chords, plucking)
|-----------------------------------------|
|-----4--3---3h4p3---------4---3----6-6s8-|
|----5-5--5--------3-5----5-5---5---------|
|---5---5--5-------------5---5---5--------|
|-3--------------------3------------------|
|-----------------------------------------|

|-----------------------------| -|
|--------4--------------------|  |
|-----3-----5-----------------|  |
|----6-6--6--6----------------|  | x2
|---6---6--6--6---------------|  |
|-4---------------------------| -|

The verse is just like the intro chords, except you'll repeat it twice.

Pre-chorus
|--------------------------------------|
|--------------------------------------|
|-----------5----88-88-----------------|
|--6----8---5----88-88--6-6-6-6--------|
|--6----8---3----66-66--6-6-6-6--------|
|--4----6---------------4-4-4-4--------|

Chorus 1(Distortion)
|------------------------------------------------|
|------------------------------------------------|
|---------5-------878----------------------------|
|-65-568--5-------878--6---8---6---8--668--------|
|-65-568--3-------656--6---8---6---8--668--------|
|-43-346---------------4---6---4---6--446--------|

|------------------------------------|
|------------------------------------|
|--555-5---878-----------------------|
|--333-5---878---6---8---6---8-------|
|--333-3---656---6---8---6---8-------|
|----------------4---6---4---6-------|

Post-Chorus: Intro Chords
Verse 2: Intro Chords
Pre-Chorus
Chorus 2(Distortion)
|--------------------------------------------|
|--------------------------------------------|
|---------5------878-------------------------|
|-65-568--5------878--6---8---6---8---668----|
|-65-568--3------656--6---8---6---8---668----|
|-43-346--------------4---6---4---6---446----|

|-----------------------------|
|-----------------------------|
|-5------878------------------|
|-5------878--6---8---6---8---|
|-3------656--6---8---6---8---|
|-------------4---6---4---6---|

Bridge
|-------------------------------------------------------|
|-------------------------------------------------------|
|--888888-------55555555--888888------55-77-88-1010-----|
|--888888-8888--55555555--888888-8888-55-77-88-1010-----|
|--666666-8888--33333333--666666-8888-33-55-66-88-------|
|---------6666-------------------6666-------------------|

|-----------------------------------------------|
|-----------------------------------------------|
|--888888-------55555555--8888------------------|
|--888888-8888--55555555--8888--55-568----------|
|--666666-8888--33333333--6666--55-568----------|
|---------6666------------------33-346----------|

Interlude
|-------------------------------------------------|
|-----4---3--3h4p3--------4---3---6-6s8-----------|
|----5-5---5------3-5----5-5---5------------------|
|---5---5---5-----------5---5---5-----------------|
|-3-------------------3---------------------------|
|-------------------------------------------------|

|----------------------------------|
|---------4------------------------|
|-----3-------5-------3~-----------|
|----6-6---6---6-----6-------------|
|---6---6---6---6---6--------------|
|-4---------------4----------------|

Chorus 3(Distortion)
|---------------------------------------|
|---------------------------------------|
|-----5-----878-------------------------|
|-556-5-----878--6---8---6---8----------|
|-556-3-----656--6---8---6---8----------|
|-334------------4---6---4---6----------|

Ending
|-------|
|-------|
|-------|
|-5~----|
|-5~----|
|-3~----|
And that's it! This is 98.0% sure. If you make any mistakes, just listen to the song 
carefully and you'll get it swell. Suggestions, comments, questions, just contact my 
            
Hard to play? Try these video lessons and learn fast. | Correct




comments powered by Disqus
↑ Back to top | Tablatures and chords are parodies/interpretations of the original songs. You may use it for private study, scholarship, research or language learning purposes only