>
 >
When Im Gone 6

When Im Gone 6 Guitar Tabs

3 Doors Down - When Im Gone 6 chords, tabs, tablatures, lyrics

Guitar lessons | Add/correct | Request | Top 50 tabs Artists:  A B C D E F G H I J K L M N O P Q R S T U V W X Y Z 0-9

When Im Gone 6 Guitar Tabs – 3 Doors Down

CD, Sheet music, Poster

Do you like When Im Gone 6? Share with your friends now
Tabs

When Iím Gone-3 Doors Down
Away From The Sun

E A D G B E


Intro:

gtr. 1

e-----------------------------------------------------------
b---------------------------------------5-----5-------------
g-----------------------------4h5-/7------------------------
d-----------------------------------------------------------
a-----------------------------------------------------------
e-----------------------------------------------------------

gtr. 2

e------------------------------------------------------------
b---------0h1-----1p0---0h1------------0h1----3--------------
g-------2-----2-------2-----2--------0-----0--0--------------
d-----2---------2-------------2----2-------0--0--------------
a-0------------------------------3------------x--------------
e---------------------------------------------3--------------

gtr. 2

e------------------------------------------------------------
b------------------------------------------------------------
g---------5p4---4---------7-------5------------4-------------
d-------------5----------------------------------------7-----
a------------------------------------------------------------
e------------------------------------------------------------

gtr. 1

e------------------------------------------------------------
b---------0h1-----3-----1-----0---------0h1----3-------1p0---
g-------2-----2-----2-----2-----0-----0-----0--0-----------0-
d-----2---------2-----2-----2-------2----------0-------------
a-0-------------------------------3------------x-------------
e----------------------------------------------3-------------

Verse 1:

Fig. 1 x4

e-0--------0-------------------------------------------------
b-0----------0---------------------------1-------3-----------
g-2------------2-------------------------0-------0-----------
d-2------------------------------------2---------0-----------
a-0----------------------------0-2-3-------------x-----------
e------------------------------------------------3-----------

Interlude:

e---------------0--------------------------------------------
b---------0h1---3------------------------0h1---0-------------
g-------2------------------------------2-------2-------------
d-----2------------------------------2-----------------------
a-0------------------------------0---------------------------
e------------------------------------------------------------

gtr. 2

e---------------0--------------------------------------------
b---------0h1---3------------------------0h1-----------3-----
g-------2------------------------------2-----2-------0-------
d-----2------------------------------2---------2---2---------
a-0------------------------------0---------------3-----------
e------------------------------------------------------------

gtr. 1

e---------------0--------------------------------------------
b---------0h1---3------------------------0h1-----------------
g-------2------------------------------2-----2-------4/5\4---
d-----2------------------------------2---------2-----4/5\4---
a-0------------------------------0-------------------2/3\2---
e----------------------------------------------------------0-

Chorus:

gtr. 1
                                                          Harm.
e-----------------------------------------------------------------
b-----------------------------------------------------------------
g-2----2-------2-----2-----4/5-----7----7-------------------------
d-2----2-------2-----2-----4/5-----7----7-----5-----5-------------
a-0----0--0-0--0-----0-0-0-2/3-2---5----5-----5-----5-----5-5-5-5-
e--------------------------------0--------0-0-3-----3-0-0---------
gtr. 2

e-----------------------------------------------------------------
b-----------------------------------------------------------------
g-2----2-------2-----2-----4/5-----7----7-----------------4/5\4---
d-2----2-------2-----2-----4/5-----7----7-----5-----5-----4/5\4---
a-0----0--0-0--0-----0-0-0-2/3-----5----5-----5-----5-----2/3\2---
e------------------------------0-0--------0-0-3-----3-0-0-------0-

Interlude:

gtr. 1

e-----------------------------------------------------------------
b---------------------------------------------8--------------5----
g----------------------------------5~~~~~~~~--7b------------------
d----------------------------5h7-7--------------------------------
a-----------------------------------------------------------------
e-----------------------------------------------------------------

gtr. 2

e-----------------------------------------------------------------
b-----------------------------------------------------------------
g-2--------------------------------5----5-------------------------
d-2--------------------------------5----5-----5-------------------
a-0----------------------------0-2-3----3-----5-------------------
e-----------------------------------------0-0-3-------------------

gtr. 1

e-----------------------------------------------------------------
b-----------------------------------------------------------------
g----------------------------------5~~~~~~~-----------------------
d-7~~~~~~~~~~~~~~~-----------5h7-7----------7p5---5---------------
a-----------------------------------------------7-----------7p5---
e---------------------------------------------------------------8-

gtr. 2

e-----------------------------------------------------------------
b-----------------------------------------------------------------
g-2--------------------------------5----5-------------------------
d-2--------------------------------5----5-----5-------------------
a-0----------------------------0-2-3----3-----5-------------------
e-----------------------------------------0-0-3-------------------

Verse 2:

e----------------------------------------------------0-------
b----------------------------------------1-------3------0--3-
g-2--------------------------------------0-------0-----------
d-2------------------------------------2---------0-----------
a-0----------------------------0-2-3-------------x-----------
e------------------------------------------------3-----------

gtr. 2 plays Fig. 1 x3

gtr. 1

e-0--------0-------------------------------------------------
b-1----------0---------------------------1-------3---3-----0-
g-2------------2-------------------------0-------0------0----
d-2------------------------------------2---------0-----------
a-0----------------------------0-2-3-------------x-----------
e------------------------------------------------3-----------

e-3-3-------3-3-3-3-3-3-3-3-3-3-3-3-3-3-3-3--3---------------
b-------5---5-5-5-5-5-5-5-5-5-5-5-5-5-5-5-5--5--------5------
g------------------------------------------------------------
d-------------------------------------------------7-------7--
a------------------------------------------------------------
e------------------------------------------------------------

gtr. 2

e----------------------------------------------------0-------
b----------------------------------------1-------3------0--3-
g-2--------------------------------------0-------0-----------
d-2------------------------------------2---------0-----------
a-0----------------------------0-2-3-------------x-----------
e------------------------------------------------3-----------

gtr. 1

e-5---------5-5-----5-5-----5-5------------------------------
b---5-----8-------8-------8-----8-8--------------------------
g---------------5-------5------------------------------------
d------------------------------------------------------------
a------------------------------------------------------------
e------------------------------------------------------------

gtr. 2

e-0----------------------------------------------------------
b-0--------------------------------------1-------3-----------
g-2--------------------------------------0-------0---4/5\4---
d-2------------------------------------2---------0---4/5\4---
a-0----------------------------0-2-3-------------x---2/3\2---
e------------------------------------------------3---------0-

Bridge:

x2
e-------------------------------------------------------------
b-------------------------------------------------------------
g-2-------4/5-----5/7-----7/9\7---2-------4/5-----5/7---------
d-2-------4/5-----5/7-----7/9\7---2-------4/5-----5/7---------
a-0---0-0-2/3-----3/5-----5/7\5---0---0-0-2/3-----3/5-5--4--5-
e---------2/3-0-0-3/5-0-0-5/7\5-0---------------------3--2--3-

then,

x2
e---------------0-----0--------------------------------------
b---------0h1---3--------3---------------0h1---0-------------
g-------2-------------------2----------2-------2-------------
d-----2------------------------------2-----------------------
a-0------------------------------0---------------------------
e------------------------------------------------------------

Guitar Solo:

gtr. 1 x4

e-----------------------------------------------------------------
b-----------------------------------------------------------------
g-2----2-------2-----2-----4/5-----7----7-----------------4/5\4---
d-2----2-------2-----2-----4/5-----7----7-----5-----5-----4/5\4---
a-0----0--0-0--0-----0-0-0-2/3-----5----5-----5-----5-----2/3\2---
e------------------------------0-0--------0-0-3-----3-0-0-------0-

gtr. 2 w/ wah

e-----------------------------------------------------------------
b-5b--------------------------------------------------------------
g-5b--------------------------------------------------------------
d-----7p5-7~~~~~~~--7~~~~-7~~-7----7p5---5------------------------
a--------------------------------------7---7-6-5b---6-6-5---------
e---------------------------------------------------------8-8-8-5-

e-----------------------------------------------------------------
b-----------------------------------------------------------------
g------------------------------------------5b--------------5b-----
d----------------------------------7-7---7-----7-7---7-7-5----0-0-
a-----------------------------------------------------------------
e-5~~~~~-5-8-5-5~~~~-3-5-3-5---0-0--------------------------------

e-----------------------------------------------------------------
b------------------------------------------5--5-------8-8-8--8-5--
g-4------------4-5-----4-------------------5--5--7b---7-7-7--7-7b-
d-------7----------0-0--------7-----7-----------------------------
a-----------------------------------------------------------------
e-----------------------------------------------------------------

e-----------------------------------------------------------------
b-5--5---5--5---8---8----8---8---12--12--12--12---17--17--17------
g-7b-7b--7b-7b-10b-10b--10b-10b--14b-14b-14b-14b--19b-19b-19b-----
d-----------------------------------------------------------------
a-----------------------------------------------------------------
e-----------------------------------------------------------------

e-17--------------------------------------------------------------
b-20b-------------------------------------------------------------
g-----------------------------------------------------------------
d-----------------------------------------------------------------
a-----------------------------------------------------------------
e-----------------------------------------------------------------


thatís about all

trevor jones





Comments


Popular 3 Doors Down tabs & chords
Its Not My Time 2 Bass Tabs
Be Like That Chords
Every Time You Go 1 Chords
Here Without You Chords
Duck And Run Tabs
If I Could Be Like That (Intro) Tabs
Live For Today Tabs
Never Will I Break Tabs
Right Where I Belong Tabs
When I'm Gone 11 Tabs


Song lyrics



↑ Back to top | Tablatures and chords are parodies/interpretations of the original songs. You may use it for private study, scholarship, research or language learning purposes only
© 2014 AZChords.com Contact us | Privacy policy | DMCA | Add/correct tabs | Request tabs | Top 50 tabs