» » »

3 Doors Down, When I M Gone Tabs (ver.5)

Artists:  A B C D E F G H I J K L M N O P Q R S T U V W X Y Z # 

When I M Gone Tabs (ver.5)

3 Doors Down Tabs
 Rating:
4/5 (4 votes)
When I M Gone lessons Tabs too difficult? Try these video lessons and learn fast
                "(6)
3 Doors Down  – When I’m gone

Tuning: (E,A,D,G,B,E)

Intro

Gtr 1. (Phaser)
E|----------------------------------------------------|
B|----------0h1-----1p0---0h1------------0h1p0--3-----|
G|--------2-----2-------2-----------------------0-----|
D|------2---------2-----------------------------0-----|
A|---0------------------------------------------2-----|
E|----------------------------------------------3-----|
                                                      |
Gtr 2. (Clean mit viel Bass und wenig Höhen)          |
E|----------------------------------------------------|
B|----------------------------------------------------|
G|-------------------------------4h5-5/7-9-9----------|
D|----------------------------------------------------|
A|----------------------------------------------------|
E|----------------------------------------------------|

Gtr 1.
E|-----------------------------------------------------------|
B|----------0h1-----3------1-----0h1---0-----0h1----0----1p0-|
G|--------2-----2-----2------2---------0------------0--------|
D|------2---------2-----2------2-------2------------0--------|
A|---0---------------------------------3------------2--------|
E|--------------------------------------------------3--------|
                                                             |
Gtr 2.                                                       |
E|-----------------------------------------------------------|
B|-----------------------------------------------------------|
G|---------5p4--4------4/7-----------5------4----------------|
D|-----------------------------------------------------------|
A|-----------------------------------------------------------|
E|-----------------------------------------------------------|
(0:00) 1 mal gespielt.

Verse

E|-------------------|
B|--0---------1---3--|
G|--2---------0---0--|
D|--2---------2---0—-|
A|--0---0h2h3-----2--|
E|----------------3--|
(0:12) 4 mal gespielt.

Text:
There's another world inside of me that you may never see.
There's secrets in this life that I can't hide.
Somewhere in this darkness there's a life that I can't find.
Maybe it's too far away or maybe I'm just blind
 
Pre Chorus

E|------------------------------------------------------|
B|--------0h1-3--------0h1-0--------0h1-3--------0h1-0--|
G|------2------------2------------2------------2--------|
D|----2------------2---—--------2------------2----------|
A|--0------------0------------0------------0------------|
E|------------------------------------------------------|
(0:38) 1 mal gespielt.

Text:
maybe I'm just blind.

Chorus

E|----------------------------------------|
B|----------------------------------------|
G|-----------2-x-x-2-----------7-x-x------|
D|-----------2-x-x-2-----------7-x-x-5----|
A|--2h3p2p0--0-x-x-0--2h3p2p0--5-x-x-5----|
E|-------------x-x---------------x-x-3----|
(0:50) 4 mal gespielt.

Text:
So hold me when I'm here right me when I'm wrong.
Hold me when I'm scared and love me when I'm gone.
Everything I am and everything in me
Wants to be the one you wanted me to be.
I'll never let you down even if I could.
I'd give up everything if only for your good.
So hold me when I'm here right me when I'm wrong.
You can hold me when I'm scared but you won't always be there,

Interlude

Gtr 1.
E|---------------------------------------------------------|
B|---------------------------------------------------------|
G|-----------2-------------------2-------------------------|
D|-----------2-------------------2-------------------------|
A|--2h3p2p0--0-------------------0-------------------------|
E|---------------------------------------------------------|
                                                           |
Gtr 2.                                                     |
E|---------------------------------------------------------|
B|-------------0-1v-----3b-3br---------------0-1-----------|
G|---2v----2h3-------------------2v-----2h3-------2p0---0--|
D|----------------------------------------------------2----|
A|---------------------------------------------------------|
E|---------------------------------------------------------|
(1:16) 1 mal gespielt.

Text:
So love me when I'm gone,
love me when I'm gone

  
Verse

Gtr 1.
E|-----------------------------------------------------------------------------------|
B|-0---------1---3-------0---------1---3-------0---------1---3-------0---------1---3-|
G|-2---------0---0-------2---------0---0-------2---------0---0-------2---------0---0-|
D|-2---------2---0—------2---------2---0-------2---------2---0-------2---------2---0-|
A|-0---0h2h3-----2-------0---0h2h3-----2-------0---0h2h3-----2-------0---0h2h3-----2-|
E|---------------3---------------------3---------------------3---------------------3-|
                                                                                     |
Gtr 2.                                                                               |
E|-----------------0-----------------------------------------------------------------|
B|-------------------0-------------------3-----------------------0-------------------|
G|---------------------0-------------------2-------------------2---2-----------------|
D|--------------------------------------------2------------------—-------------------|
A|-----------------------------------------------------------------------------------|
E|-----------------------------------------------------------------------------------|
(1:30) 1 mal gespielt.

Text:
When your education x-ray cannot see under my skin.
I won't tell you a *** thing that I could not tell my friends.
Now roaming through this darkness I'm alive but I'm alone.
Part of me is fighting this but part of me is gone.

Chorus
(1:55) 4 mal gespielt.

Text:
So hold me when I'm here right me when I'm wrong.
Hold me when I'm scared and love me when I'm gone. 
Everything I am and everything in me.
Wants to be the one you wanted me to be,
Ill never let you down even if I could.
I'd give up everything if only for your good.
So hold me when I'm here right me when I'm wrong
You can hold me when I'm scared, you won't always be there,
 
Bridge

E|---------------------------------------------------------------------|
B|---------------------------------------------------------------------|
G|-----------2-2-2-4/5-5-5-5/7-7-7-7/9-7/9---2-2-2-4/5—5-5-5/7---------|
D|-----------2-2-2-4/5—5-5-5/7-7-7-7/9-7/9---2-2-2-4/5—5-5-5/7--5-4-5--|
A|--2h3p2p0--0-0-0-2/3-3-3-3/5-5-5-5/7-5/7---0-0-0-2/3-3-3-3/5--5-4-5--|
E|--------------------------------------------------------------3-2-3--|
pm             ...     ....    ....            ...     ....     ......

E|---------------------------------------------------------------|
B|---------------------------------------------------------------|
G|--2-2-2-4/5-5-5-5/7-7-7-7/9-7/9---2-2-2-4/5—5-5-5/7---------2--|
D|--2-2-2-4/5—5-5-5/7-7-7-7/9-7/9---2-2-2-4/5—5-5-5/7--5-4-5--2--|
A|--0-0-0-2/3-3-3-3/5-5-5-5/7-5/7---0-0-0-2/3-3-3-3/5--5-4-5--0--|
E|-----------------------------------------------------3-2-3-----|
pm    ...     ....    ....            ...     ....     ......
(2:21) 1 mal gespielt.

Text:
So love me when I'm gone.
 

Pre Solo

Gtr 1.
E|--------------0------------------------------0------------------|
B|----------------3------------------------------3----------------|
G|------------------2------------------------------2--------------|
D|------------------—---------------------------------------------|
A|----------------------------------------------------------------|
E|----------------------------------------------------------------|
                                                                  |
Gtr 2.                                                            |
E|----------------------------------------------------------------|
B|--------0h1-3-------------0h1-0--------0h1-3-------------0h1-0--|
G|------2-----------------2------------2-----------------2--------|
D|----2-----------------2---—--------2-----------------2----------|
A|--0-----------------0------------0-----------------0------------|
E|----------------------------------------------------------------|
(2:35) 1 mal gespielt.

Text:
Maybe I'm just blind

Solo

Gtr 1.
E|----------------------------------------------------------------------------------|
B|----------------------------------------------------------------------------------|
G|-2------2---------------7-x-x----------------2-x-x-2---------------7-x-x----------|
D|-2------2---------------7-x-x-5--------------2-x-x-2---------------7-x-x-5--------|
A|-0------0-----2h3p2p0---5-x-x-5---2h3p2p0----0-x-x-0----2h3p2p0----5-x-x-5--------|
E|--------------------------x-x-3----------------x-x-------------------x-x-3--------|
                                                                                    |
Gtr 2.                                                                              |
E|----------------------------------------------------------------------------------|
B|---------------------------------------------------------------------1b-----------|
G|-2v-2-0-2v-2v—2v--2-0---0-----------------------------------2v-2-2-2----2-2v-2-2--|
D|----------------------2---2-1-0--0-2-1-0------------------------------------------|
A|-----------------------------------------0v-3-2-0v-0-3-2-0v-----------------------|
E|----------------------------------------------------------------------------------|

Gtr 1.
E|----------------------------------------------------------------------------------|
B|----------------------------------------------------------------------------------|
G|-------------2-x-x-2----------------------7-x-x----------------------2-x-x-2------|
D|-------------2-x-x-2----------------------7-x-x-5--------------------2-x-x-2------|
A|-2h3p2p0-----0-x-x-0----------2h3p2p0-----5-x-x-5--------2h3p2p0-----0-x-x-0------|
E|---------------x-x--------------------------x-x-3----------------------x-x--------|
                                                                                    |
Gtr 2.                                                                              |
E|----------------------------------------------------------------------------------|
B|-0h1p0-----0------------------0h1p1-----0------------------0-1-3b-3b—-5—-5-—5-5-5-|
G|-------0—2/4-4-4-4-4-4--2-2-2-------0-2/4-4-4-4-4-4--2-2-2------------------------|
D|----------------------------------------------------------------------------------|
A|----------------------------------------------------------------------------------|
E|----------------------------------------------------------------------------------|
 
Gtr 1.
E|----------------------------------------------------------------|
B|----------------------------------------------------------------|
G|---------------7-x-x--------------------------------------------|
D|---------------7-x-x-5------------------------------------------|
A|---2h3p2p0-----5-x-x-5------------------------------------------|
E|-----------------x-x--------------------------------------------|
                                                                  |
Gtr 2.                                                            |
E|-3-3-3-3-3-3-3--5-5-5--12-12-12-12—-17-17-17-17-17-17-17-17-17--|
B|----------------------------------------------------------------|
G|----------------------------------------------------------------|
D|----------------------------------------------------------------|
A|----------------------------------------------------------------|
E|----------------------------------------------------------------|
(2:48) 1 mal gespielt.

Chorus
(3:13) 4 mal gespielt.

Text:
So hold me when I'm here right me when I'm wrong.
Hold me when I'm scared and love me when I'm gone.
Everything I am and everything in me,
Wants to be the one you wanted me to be. 
I'll never let you down even if I could.
I'd give up everything if only for your good.
So hold me when I'm here right me when I'm wrong.
You can hold me when I'm scared, you won't always be there.

Outro

Gtr 1.
E|----------------------------------------------------------------------|
B|----------------------------------------------------------------------|
G|-----------2---2-4-5-5-x-x-----2---2-4-5-5-x-x-----2---2-4-5-5-x-x----|
D|-----------2---2-4-5-5-x-x-5---2---2-4-5-5-x-x-5---2---2-4-5-5-x-x-5--|
A|-2h3p2p0---0---0-2-3-3-x-x-5---0---0-2-3-3-x-x-5---0---0-2-3-3-x-x-5--|
E|-----------------------x-x-3---------------x-x-3---------------x-x-3--|
                                                                        |
Gtr 2.                                                                  |
E|----------------------------------------------------------------------|
B|----------------------------------------------------------------------|
G|----------------------------------------------------4--2-----4-4-2----|
D|----------------------------------------------------------------------|
A|----------------------------------------------------------------------|
E|----------------------------------------------------------------------|
 

Gtr 1. 
E|-------------------------|
B|-------------------------|
G|-2---2-4-5-5-x-x------2--|
D|-2---2-4-5-5-x-x-5----2--|
A|-0---0-2-3-3-x-x-5----0--|
E|-------------x-x-3-------|
                           |
Gtr 2.                     |
E|-------------------------|
B|-------------------------|
G|--4-—5-----4-4-2---------|
D|-------------------------|
A|-------------------------|
E|-------------------------|
(3:39) 1 mal gespielt.

Text: 
So love me when I'm gone,
love me when I'm gone, 
love me when I'm gone, 
when I'm gone, 
when I'm gone, 
when I'm gone,
when I'm gone
"            
Submit corrections

comments powered by Disqus
↑ Back to top | 3 Doors Down Tabs for When I M Gone. Lyrics for acoustic guitar and electric guitar. Tablatures and chords are parodies/interpretations of the original songs. You may use it for private study, scholarship, research or language learning purposes only