>
 >
The Silence Remains

The Silence Remains Guitar Tabs

3 Doors Down - The Silence Remains chords, tabs, tablatures, lyrics

Guitar lessons | Add/correct | Request | Top 50 tabs Artists:  A B C D E F G H I J K L M N O P Q R S T U V W X Y Z 0-9

The Silence Remains Guitar Tabs – 3 Doors Down

CD, Sheet music, Poster

Do you like The Silence Remains? Share with your friends now
Tabs

3 Doors Down: Silence Remains
(Itunes bonus track)


Standard Tuning!

Enjoy!

I heard 3 guitars in this song so here it is:


INTRO:
Guitar 1
E-------------------------------|
B-3---------------3-------------|
G-2---------------2-------------| play 2 times
D-0---------------0-------------|
A-0---------------0-------------|
E-------------------------------|

Guitar 2
E-------------------------------|
B-3-----X-3-----X-3-----X-3-----|
G---X-2-----X-2-----X-2-----X-2-| play 2 times
D-------------------------------|
A-------------------------------|
E-------------------------------|

Guitar 3
E-------------------------3-1---|              E-----8-5-|
B-----------------------------3-|              B-8-6-----|
G-------------------------------| 2nd part is: G---------|
D-------------------------------|              D---------|
A-------------------------------|              A---------|
E-------------------------------|              E---------|



Guitar 1
E-------------------------------|
B-------------------------------|
G-3---------------3-------------|
D-3---------------3-------------|
A-1---------------1-------------|
E-------------------------------|

Guitar 2
E-------------------------------|
B-----------X-1-------------X-1-|
G-2-----X-2-----X-2-----X-2-----|
D---X-3-------------X-3---------|
A-------------------------------|
E-------------------------------|

Guitar 3
E-------------------------------|                                    E---0-1---|
B---------3-1-------------3-1---|                                    B-3-----3-|
G-------------3---------------3-| play 1 more (not 2), and play this G---------|
D-------------------------------|                                    D---------|
A-------------------------------|                                    A---------|
E-------------------------------|                                    E---------|


VERSE: (0:17) Repeat INTRO!


CHORUS: (0:52) Play 2 Times
Guitar 1
E--------------------|
B-3----------------3-|
G-2---3-----5------2-|
D-0---3-----5------0-|
A-0---1-----3------0-|
E--------------------|
  Lay down  Rest.. Peace

Guitar 2
E--------------------|
B-18--11----13-----15|
G-X---X-----X------X-|
D-15--8-----10-----12|
A--------------------|
E--------------------|
  x6  x6    x6     x6


E-------------------------|
B-3-----------------------|
G-2---3---------------5---|
D-0---3-----3---------5---|
A-0---1-----3---------3---|
E-----------1-------------|
 Arms now   Knowing.. Safe

Guitar 2
E-------------------------|
B-15--11----13--------8---|
G-X---X-----X---------X---|
D-12--8-----10--------5---|
A-------------------------|
E-------------------------|
  x6  x6    x6        x6


POST-CHORUS: (1:09) Play Intro Once!

VERSE: (1:26) Repeat First Verse!

CHORUS: (2:00) Repeat First Chorus

BRIDGE: (2:18)
Guitar 1
E---|
B-3-|
G-2-| palm muted
D-0-| till next part
A---|
E---|

Guitar 2
E---------------------------------------|
B-----------------------------------1-1-|
G---2-3-3-----0---------2-3-3-----3-----|
D---------------3-3---------------------|
A---------------------------------------|
E---------------------------------------|

Guitar 1
E-----------------------------------------|
B-----------------------------------------|
G-3---------3----------3---------3--------|
D-3---------3----------3---------3--------|
A-1---------1----------1---------1--------|
E-----------------------------------------|

Guitar 2
E-----------------------------------------|
B-----------------------------------------|
G-------0-2-----2-0---------0-2-----2-0---|
D-----3-------------3-----3-------------3-|
A-----------------------------------------|
E-----------------------------------------|


Guitar 1
E---------| 
B-3-------|
G-2---3---| x2
D-0---3---|
A-----1---|
E---------|
  Lay down


CHORUS: (2:43) Repeat CHORUS! 2 times

OUTRO: (3:18)

Guitar 1
E---|
B---|
G-7-| fade out
D-X-|
A-5-|
E---|

Guitar 2
E---------------------------------------|
B---------------------------------------|
G---2-3-3-----0---------2-3-3-----0-----|
D---------------3-3-----------------3-3-|
A---------------------------------------|
E---------------------------------------|


KEY:
X = mute string


THANK YOU! Please rate!





Comments


Popular 3 Doors Down tabs & chords
Down Poison 1 Chords
Loser Intro Chords
She Is Love Chords
So I Need You 2 Chords
Away From The Sun 2 Tabs
Its The Only One Youve Got Tabs
Kyptonite Tabs
Landing In London 1 Tabs
Love Me When Im Gone 1 Tabs
Not Enough 1 Tabs


Song lyrics



↑ Back to top | Tablatures and chords are parodies/interpretations of the original songs. You may use it for private study, scholarship, research or language learning purposes only
© 2014 AZChords.com Contact us | Privacy policy | DMCA | Add/correct tabs | Request tabs | Top 50 tabs