>
 >
She Is Love

She Is Love Guitar Tabs

3 Doors Down - She Is Love chords, tabs, tablatures, lyrics

Guitar lessons | Add/correct | Request | Top 50 tabs Artists:  A B C D E F G H I J K L M N O P Q R S T U V W X Y Z 0-9

She Is Love Guitar Tabs – 3 Doors Down

CD, Sheet music, Poster

Do you like She Is Love? Share with your friends now
ChordsTabsUkulele
Tuning: STANDARD


ENJOY! This should be correct 100%. Please rate!


INTRO:
E--------------------------------------------------------0--|
B-----------------------------------------------------------|
G-----------5--4----------------------5--4------------------|
D------5h7---------------5--3-----5h7--------------5--3-----|
A--------------------5h7-----------------------5h7----------|
E--\8-------------------------------------------------------|


VERSE:
E----------------------------------------------------0----|
B---------------------------------------------------------|
G-------5--4----------------------5--4--------------------|
D---5h7--------------5--3-----5h7--------------5--3-------|
A----------------5h7-----------------------5h7------------|
E---------------------------------------------------------|
 She walks through the city    No one recognizes her face

E---------------------------------------------------------|
B----------------------------------------------------8----|
G-------5--4----------------------5--4-----------------9--|
D---5h7--------------5--3-----5h7--------------5--3-------|
A----------------5h7-----------------------5h7------------|
E---------------------------------------------------------|
 They don't want her pity    No one ever mentions her name

Guitar 1 (GUITAR 2 kicks in)
E------------------------------------------------------0--|
B---------------------------------------------------------|
G-------5--4------------------------5--4------------------|
D---5h7--------------5--3-------5h7--------------5--7-----|
A----------------5h7-------------------------5h7----------|
E---------------------------------------------------------|
 She's carried the broken       But the scars have no name in her heart

Guitar 2
E------------------------------------------------------3-0--|
B----------------------------3\1--------------------1-------|
G-----------------------2---0---2---------------------------|
D-----------------------------------------------------------|
A-----------------------------------------------------------|
E-----------------------------------------------------------|

Guitar 1
E------------------------------------------------------0--|
B---------------------------------------------------------|
G-------5--4------------------------5--4------------------|
D---5h7--------------5--3-------5h7--------------5--7-----|
A----------------5h7-------------------------5h7----------|
E---------------------------------------------------------|
 Cause she walks in forgiveness
 She'll shine like a light in the dark

Guitar 2
E---------------------------------0-----------------------|
B---------------------------------------------------------|
G-------------------------------2-------------------------|
D---------------------------------------------------------|
A---------------------------------------------------------|
E---------------------------------------------------------|

Guitar 1
E---------------------------------------------------------|
B---------------------------------------------------------|
G----------14/17---16-----14---12---------12/14-----12----|
D------------------------------------------------------12-|
A---------------------------------------------------------|
E---------------------------------------------------------|
 She is love                    She is love

Guitar 1
E---------------------------------------------------------|
B---------------------------------------------------------|
G----------14/17---16-----14---12---------12/14-----9-----|
D------------------------------------------------------9--|
A---------------------------------------------------------|
E---------------------------------------------------------|
 She is love


VERSE 2:
Guitar 1
E-----------------------------------------------------------|
B-----------------------------------------------------------|
G-------5--4------------------------5--4--------------------|
D---5h7--------------5--3-------5h7--------------5--7-------|
A----------------5h7-------------------------5h7------------|
E-----------------------------------------------------------|
 She'll always remember, the days when they welcomed her here

Guitar 2
E------------------------------------------------------3--0-|
B-------1------------1-----------------------3h1------------|
G--------2~-----------2~------------------------2-0-2-------|
D-------------------------7h5-5/7---------------------------|
A----------------------------7------------------------------|
E-----------------------------------------------------------|

Guitar 1
E-----------------------------------------------------------|
B-----------------------------------------------------------|
G-------5--4------------------------5--4--------------------|
D---5h7--------------5--3-------5h7--------------5--7-------|
A----------------5h7-------------------------5h7------------|
E-----------------------------------------------------------|
 They know if they need her     She made a promise to always be here

Guitar 2
E-----------------------------------------------------------|
B-----------------------1--------------------3h1------------|
G------------------------2~---------------------2-0-2-------|
D-----------------------------------------------------------|
A-----------------------------------------------------------|
E-----------------------------------------------------------|

Guitar 1
E---------------------------------------------------------|
B---------------------------------------------------------|
G----------14/17---16-----14---12---------12/14-----12----|
D------------------------------------------------------12-|
A---------------------------------------------------------|
E---------------------------------------------------------|
 She is love                    She is love

Guitar 1
E---------------------------------------------------------|
B---------------------------------------------------------|
G----------14/17---16-----14---12---------12/14-----9-----|
D------------------------------------------------------9--|
A---------------------------------------------------------|
E---------------------------------------------------------|
 She is love                    She is love


CHORUS: (Distortion)
E----------------------------------------------------|
B----------------------------------------------------|
G-2------2------2-------------2------2-----2---------|
D-2------2------2-------------2------2-----2---------|
A-0------0------0----2h3------0------0-----0----3----|
E------------------------3------------------------3--|
  When they are weak she will always be strong

E------------------------------------------------------|
B------------------------------------------------------|
G-2------2----2---------------------2------------------|
D-2------2----2---------------------2-------3---3-3-3--|
A-0------0----0----------2h3--------0-------3---3-3-3--|
E---------------------------3---------------1---1-1-1--|
  Though they don't know if they're never alone

E-----------------------------------------------|
B-----------------------------------------------|
G-2-----2---2--------2------2-----2-------------|
D-2-----2---2--------2------2-----2-------------|
A-0-----0---0---2h3--0------0-----0--------3----|
E------------------3-------------------------3--|
  No matter how many times they may leave

E-------------------------------------------------|
B-------------------------------------------------|
G-2------2----2-----------------2------------x15--|
D-2------2----2-----------------2--------3---3----|
A-0------0----0-------2h3-------0--------3---3----|
E-------------------------3--------------1---1----|
  It's never hopeless cause she still believes

Guitar 1
E----------------------------------------------------------|
B----------------------------------------------------------|
G-----------2-------------------------2--------------------|
D-----------2---5-----2---5-----------2---5-----2-----3----|
A-----------0---5-----2---5-----------0---5-----2-----3----|
E---------------3-----0---3---------------3-----0-----1----|
  She is love               She is love  

Guitar 2
E-------------------------------------------------------------|
B-----------8/10------8---------------8/10---12121312-10/12~--|
G-----------------9-------7---------------9\------------------|
D-------------------------------------------------------------|
A-------------------------------------------------------------|
E-------------------------------------------------------------|

Guitar 1
E----------------------------------------------------------|
B----------------------------------------------------------|
G-----------2-------------------------2--------------------|
D-----------2---5-----2---5-----------2---5-----2-----3----|
A-----------0---5-----2---5-----------0---5-----2-----3----|
E---------------3-----0---3---------------3-----0-----1----|
  She is love               She is love  

Guitar 2
E---------------------------------------------------------------|
B-----------8/10------8---------------8/10-8---13121312-15/17~--|
G-----------------9-------7-------------------------------------|
D---------------------------------------------------------------|
A---------------------------------------------------------------|
E---------------------------------------------------------------|

Guitar 1
E----------------------------------------------------------|
B----------------------------------------------------------|
G-----------2-------------------------2--------------------|
D-----------2---------2---------------2---------2-----3----|
A-----------0---------2---------------0---------2-----3----|
E---------------------0-------------------------0-----1----|
  She is love                

Guitar 1
E----------------------------------------------------------|
B----------------------------------------------------------|
G-----------2-------------------------2--------------------|
D-----------2---------2---------------2---------2-----3----|
A-----------0---------2---------------0---------2-----3----|
E---------------------0-------------------------0-----1----|
  She is love                

Guitar 2
E----------------------------------------------------------|
B-------------17~--------------------15~-------13--13\12~--|
G----------------------------------------------------------|
D----------------------------------------------------------|
A----------------------------------------------------------|
E----------------------------------------------------------|


THANK YOU! (please rate!)


KEYS:
/ = slide up
\ = slide down
h = hammer-on
~ = vibrato





Comments


Popular 3 Doors Down tabs & chords
Loser 2 Bass Tabs
Goodbyes Chords
Behind Those Eyes 1 Tabs
I Woke Up In London Tabs
Kryptonite Tab And Fingering Explained Tabs
She Dont Want The World 3 Tabs
When Im Gone 4 Tabs
Your Arms Feel Like Home 1 Tabs
Be Like That 2 Ukulele
Here By Me Ukulele


Song lyrics



↑ Back to top | Tablatures and chords are parodies/interpretations of the original songs. You may use it for private study, scholarship, research or language learning purposes only
© 2014 AZChords.com Contact us | Privacy policy | DMCA | Add/correct tabs | Request tabs | Top 50 tabs