» » »

Pop Song Tabs (ver.1)

Artists:  A B C D E F G H I J K L M N O P Q R S T U V W X Y Z # 

Pop Song Tabs (ver.1)

3 Doors Down
Rating:
0/5 (0 votes)

Hard to play? Try these video lessons and learn fast.
                -------------------------------------------------------------------------------
                             Popsong - 3 doors Down
-------------------------------------------------------------------------------

Tuning:Drop D

Intro (clean)
e|-------------------------------------------------------------------|
B|-------------------------------------------------------------------|
G|-------------------------------------------------------------------|     X2
D|------7------7/9\7-----3----3-2-----7-----7/9\7---3-----5----------|
A|-----5-----5---------0-----0-------5-----5-------3-----5-----------|
D|----0-----0---------0-----0-------0-----0-------3-----5-----2------|

Verse w/distortion
e|-------------------------------------------------------------------|
B|-------------------------------------------------------------------|
G|-------------------------------------------------------------------|     X4
D|------7------7/9\7-----3----3-2-----7-----7/9\7---3-----5----------|
A|-----5-----5---------0-----0-------5-----5-------3-----5-----------|
D|----0-----0---------0-----0-------0-----0-------3-----5-----2------|

Pre-chorus
e|-------------------------------------------------------------------|
B|-------------------------------------------------------------------|
G|-------------------------------------------------------------------|     X2
D|---5--5/7--7-----0-3-0-5-0-3-----3--3/7--7------3-----5------------|
A|---3--3/5--5-----0-3-0-5-0-3-----5--5/5--5-----3-----5-------------|
D|-----------------0-3-0-5-0-3------------------3-----5----2---------|

Chorus
e|-------------------------------------------------------------------|
B|-------------------------------------------------------------------|
G|-------------------------------------------------------------------|     X2
D|--7--5-------5--4-------5--4---0-3-0-5-0-3-0-----------------------|
A|--5--3-------3--2-------3--2---0-3-0-5-0-3-0-----------------------|
D|--------0-0--------0-0---------0-3-0-5-0-3-0-----------------------|

Pre-verse (solo over top still figuring out)
e|-------------------------------------------------------------------|
B|-------------------------------------------------------------------|
G|-------------------------------------------------------------------|     X2
D|------7------7/9\7-----3----3-2-----7-----7/9\7---3-----5----------|
A|-----5-----5---------0-----0-------5-----5-------3-----5-----------|
D|----0-----0---------0-----0-------0-----0-------3-----5-----2------|

Verse
e|-------------------------------------------------------------------|
B|-------------------------------------------------------------------|
G|-------------------------------------------------------------------|     X4
D|------7------7/9\7-----3----3-2-----7-----7/9\7---3-----5----------|
A|-----5-----5---------0-----0-------5-----5-------3-----5-----------|
D|----0-----0---------0-----0-------0-----0-------3-----5-----2------|

Pre-chorus
e|-------------------------------------------------------------------|
B|-------------------------------------------------------------------|
G|-------------------------------------------------------------------|     X2
D|---5--5/7--7-----0-3-0-5-0-3-----3--3/7--7------3-----5------------|
A|---3--3/5--5-----0-3-0-5-0-3-----5--5/5--5-----3-----5-------------|
D|-----------------0-3-0-5-0-3------------------3-----5----2---------|

Chorus
e|-------------------------------------------------------------------|
B|-------------------------------------------------------------------|
G|-------------------------------------------------------------------|
D|--7--5-------5--4-------5--4---0-3-0-5-0-3-0--0--0-----------------|
A|--5--3-------3--2-------3--2---0-3-0-5-0-3-0--0--0-----------------|
D|--------0-0--------0-0---------0-3-0-5-0-3-0--0--0-----------------|

e|-------------------------------------------------------------------|
B|-------------------------------------------------------------------|
G|-------------------------------------------------------------------|
D|--7--5-------5--4-------5--4---0-3-0-5-0-6-0-5-0-3-0---------------|
A|--5--3-------3--2-------3--2---0-3-0-5-0-6-0-5-0-3-0---------------|
D|--------0-0--------0-0---------0-3-0-5-0-6-0-5-0-3-0---------------|

Breakdown
e|-------------------------------------------------------------------|
B|-------------------------------------------------------------------|
G|---------------------------7-7*------------------------------------|
D|--0-3-5-3-0--0-3-5-3-0--0--------0-3-5-3-0--0-3-5-3-0--0--5--7-----|
A|--0-3-5-3-0--0-3-5-3-0--0--------0-3-5-3-0--0-3-5-3-0--0--3--5-----|
D|--0-3-5-3-0--0-3-5-3-0--0--------0-3-5-3-0--0-3-5-3-0--0-----------|

e|-------------------------------------------------------------------|
B|-------------------------------------------------------------------|
G|---------------------------7*-7*-----------------------------------|
D|--0-3-5-3-0--0-3-5-3-0--0--------0-3-5-3-0--0-3-5-3-0--8-7-5-7-5-3-|
A|--0-3-5-3-0--0-3-5-3-0--0--------0-3-5-3-0--0-3-5-3-0--8-7-5-7-5-3-|
D|--0-3-5-3-0--0-3-5-3-0--0--------0-3-5-3-0--0-3-5-3-0--8-7-5-7-5-3-|

Chorus
e|-------------------------------------------------------------------|
B|-------------------------------------------------------------------|
G|-------------------------------------------------------------------|
D|--7--5-------5--4-------5--4---0-3-0-5-0-3-0--0--0-----------------|
A|--5--3-------3--2-------3--2---0-3-0-5-0-3-0--0--0-----------------|
D|--------0-0--------0-0---------0-3-0-5-0-3-0--0--0-----------------|

e|-------------------------------------------------------------------|
B|-------------------------------------------------------------------|
G|-------------------------------------------------------------------|
D|--7--5-------5--4-------5--4---0-3-0-5-0-6-0-5-0-3-0---------------|
A|--5--3-------3--2-------3--2---0-3-0-5-0-6-0-5-0-3-0---------------|
D|--------0-0--------0-0---------0-3-0-5-0-6-0-5-0-3-0---------------|

Outro
e|--------------------------------------------------------------------|
B|--------------------------------------------------------------------|
G|---------------------------7-7*-------------------------------------|
D|--0-3-5-3-0--0-3-5-3-0--0--------0-3-5-3-0--0-3-5-3-0--0--5--7------|
A|--0-3-5-3-0--0-3-5-3-0--0--------0-3-5-3-0--0-3-5-3-0--0--3--5------|
D|--0-3-5-3-0--0-3-5-3-0--0--------0-3-5-3-0--0-3-5-3-0--0------------|

e|--------------------------------------------------------------------|
B|--------------------------------------------------------------------|
G|---------------------------7*-7*------------------------------------|
D|--0-3-5-3-0--0-3-5-3-0--0--------0-3-5-3-0--0-3-5-3-0--8-7-5-7-5-3-0|
A|--0-3-5-3-0--0-3-5-3-0--0--------0-3-5-3-0--0-3-5-3-0--8-7-5-7-5-3-0|
D|--0-3-5-3-0--0-3-5-3-0--0--------0-3-5-3-0--0-3-5-3-0--8-7-5-7-5-3-0|

| /  slide up
| \  slide down
| h  hammer-on
| p  pull-off
| ~  vibrato
| +  harmonic
| x  Mute note
===============================================================================
            
Hard to play? Try these video lessons and learn fast. | Correct




comments powered by Disqus
↑ Back to top | Tablatures and chords are parodies/interpretations of the original songs. You may use it for private study, scholarship, research or language learning purposes only