>
 >
Not My Time

Not My Time Guitar Tabs

3 Doors Down - Not My Time chords, tabs, tablatures, lyrics

Guitar lessons | Add/correct | Request | Top 50 tabs Artists:  A B C D E F G H I J K L M N O P Q R S T U V W X Y Z 0-9

Not My Time Guitar Tabs – 3 Doors Down

CD, Sheet music, Poster

Do you like Not My Time? Share with your friends now
Tabs
                         Intro
         Am                                        G
e[---------------------------------------------------3--]1
B[---------oh2-----oh3-----oh2---------------3po-----3--]2
G[-------2-----2-------2-------2----------o----------o--]3
D[-----2---------2-------2-------2-------------------o--]4
A[---o--------------------------------o-2-3----------2--]5
E[---------------------------------------------------3--]6
                       Repeat         
e[------------]1
B[------------]2
G[--4/5/7/9-9-]3
D[------------]4
A[------------]5
E[------------]6
 1st solo (lick)

e[-------------------------------]1
B[-------oh1---3----------oh1---o]2
G[----2------2---------2------2--]3
D[--2----------------2-----------]4
A[-o---------------o-------------]5
E[-------------------------------]6
            Repeat   Pre Chorus
      A                           D         G
e[--------------------------------------------------]1
B[--------------------------------------------------]2
G[--2-2-2-x-x-2-2-2--------------7-7-7--------------]3
D[--2-2-2-x-x-2-2-2--------------7-7-7---5-5-5------]4
A[--o-o-o-x-x-o-o-o--2h3p2po-----5-5-5---5-5-5------]5
E[---------------------------------------3-3-3------]6
                          Repeat   chorus


e[------------------------------------------]1
B[-----5b-----------------------------------]2
G[-----5b-----------------------------------]3
D[---------7-5-7-5h7p5---5------------------]4
A[---------------------7---7-6-5---5--------]5
E[-------------------------------8---8-5----]6
              Solo




On this part you can do anything you want with these notes.

e[------------------------------------5---8]1
B[-----------------------------5--8--------]2
G[----------------------5---7--------------]3
D[----------------5--7---------------------]4
A[---------5---7---------------------------]5
E[--5---8----------------------------------]6
                Am-Pentatonic
e[---------------------------------------------17--20]1
B[-------------------------------------17--20--------]2
G[-----------------------------17--19----------------]3
D[---------------------17--19------------------------]4
A[-------------17--19--------------------------------]5
E[------17--20---------------------------------------]6

On this part you can do anything you want with these notes.


I did not steal this from any other tabs





Comments


Popular 3 Doors Down tabs & chords
Kryptonite Bass Tabs
Kryptonite Chords
By My Side 1 Tabs
Citizen Soldier Tabs
Citizen Soldier 4 Tabs
Kryptonite (Intro) Tabs
Landing In London 5 Tabs
Train Tabs
When I'm Gone 16 Tabs
Kryptonite Ukulele


Song lyrics



↑ Back to top | Tablatures and chords are parodies/interpretations of the original songs. You may use it for private study, scholarship, research or language learning purposes only
© 2014 AZChords.com Contact us | Privacy policy | DMCA | Add/correct tabs | Request tabs | Top 50 tabs