>
 >
My World 1

My World 1 Guitar Tabs

3 Doors Down - My World 1 chords, tabs, tablatures, lyrics

Guitar lessons | Add/correct | Request | Top 50 tabs Artists:  A B C D E F G H I J K L M N O P Q R S T U V W X Y Z 0-9

My World 1 Guitar Tabs – 3 Doors Down

CD, Sheet music, Poster

Do you like My World 1? Share with your friends now
ChordsTabsTabs v2Tabs v3Ukulele
-------------------------------------------------------------------------------
			     My World - 3 Doors Down
-------------------------------------------------------------------------------

Tuning: Standard EADGBe

Intro/Verse:

Guitar1						      You're stuck on...
e|---------------------------------------------------------------------------|
B|--------------------------*12---------------------------4----4h5-----------|
G|--------------------------*12------------------------------5-----5---------|
D|-------5--4--------5--5--------------5--4--------5--5--------------3-------|
A|--5/7-----5---5/7-----3---------5/7-----5---5/7-----3----------------------|
E|---------------------------------------------------------------------------|

e|---------------------------------------------------------------------------|
B|-------------------------------------------------------4----4h5------------|
G|----------------------------------------------------------5-----5----------|
D|-------5--4--------5--5--------------5--4--------5--5-------------3--------|
A|--5/7-----5---5/7-----3---------5/7-----5---5/7-----3----------------------|
E|---------------------------------------------------------------------------|

e|---------------------------------------------------------------------------|
B|---------------------------------------------------------------------------|
G|---------------------------------------------------------------------------|
D|-------5--4--------5--5--------------5--4--------5--5----------------------|
A|--5/7-----5---5/7-----3---------5/7-----5---5/7-----3----------------------|
E|---------------------------------------------------------------------------|

Pre-chorus:

 Am					      G		B
And you're trapped inside this world you made yourself.

Verse:

Guitar1
e|---------------------------------------------------------------------------|
B|-------------------------------------------------------4----4h5------------|
G|----------------------------------------------------------5-----5----------|
D|-------5--4--------5--5--------------5--4--------5--5-------------3--------|
A|--5/7-----5---5/7-----3---------5/7-----5---5/7-----3----------------------|
E|---------------------------------------------------------------------------|
 |
 |Guitar2
 |  Em      D5  Em      C5	  Em	  D5  Em      C5

Guitar1
e|----------------------------------------------------0----------------------|
B|----------------------------------------------------0----------------------|
G|----------------------------------------------------0----------------------|
D|-------5--4--------5--5--------------5--4--------5--5----------------------|
A|--5/7-----5---5/7-----3---------5/7-----5---5/7-----3----------------------|
E|---------------------------------------------------------------------------|
 |
 |Guitar2
 |  Em      D5  Em      C5	  Em	  D5  Em      C5


Guitar1 - add distortion
								  There's always...
e|-------------0--------------------------------------0-----0----------------|
B|---------------0----------------4---4h5---------------0-----0-----0--------|
G|-----------------0----------------5---------------------0-----0-----0------|
D|-------5--4---------------5--5----------------5--4--------------2-----2----|
A|--5/7-----5----------5/7-----3------------5/7-----5---------------------2--|
E|---------------------------------------------------------------------------|
- remove distortion
e|---------------------------------------------------------------------------|
B|-------------------------------------------------------4----4h5------------|
G|----------------------------------------------------------5-----5----------|
D|-------5--4--------5--5--------------5--4--------5--5-------------3--------|
A|--5/7-----5---5/7-----3---------5/7-----5---5/7-----3----------------------|
E|---------------------------------------------------------------------------|
 |
 |Guitar2
 |  Em      D5  Em      C5	  Em	  D5  Em      C5

e|---------------------------------------------------------------------------|
B|---------------------------------------------------------------------------|
G|---------------------------------------------------------------------------|
D|-------5--4--------5--5--------------5--4--------5--5----------------------|
A|--5/7-----5---5/7-----3---------5/7-----5---5/7-----3----------------------|
E|---------------------------------------------------------------------------|
 |
 |Guitar2
 |  Em      D5  Em      C5	  Em	  D5  Em      C5

Pre-chorus:
				Add distortion
 A2					G5	 B5
And your trapped in this world you made yourself.

Chorus:
    Em					    D5		     Em
And that's not the world I live in, this is not the live for me
e|-12*-----------------------------------------------------------------------|
B|---------------------12*---------------------------------------------------|
G|------------------------------------------11b~-------------9---------------|
D|---------------------------------------------------------------------------|
A|---------------------------------------------------------------------------|
E|---------------------------------------------------------------------------|

	  	  C5				    D5		
'Cause my world's bigger than your problems and its bigger than me

Em			      	      D5	       Em
It's not the world I live in, this is not the live for me
e|*12------------------------------------------------------------------------|
B|---------------12*---------------------------------------------------------|
G|------------------------------------11b~-------------9---------------------|
D|---------------------------------------------------------------------------|
A|---------------------------------------------------------------------------|
E|---------------------------------------------------------------------------|

		  C5			   A2 B5
'Cause my world's bigger than your problems    and its bigger than me

Bridge: I can't quite make out the solo so I just have this, dunno if I have
	the rythme matched quite right though.
e|---------------------------------------------------------------------------|
B|---------------------------------------------------------------------------|
G|-9-x-x-9-x-x-9-x-x-9-x-x-9-x-x-x-11-x-x-11-x-x-11-x-x-11-x-x-11-x-x-x------|
D|-9-x-x-9-x-x-9-x-x-9-x-x-9-x-x-x-11-x-x-11-x-x-11-x-x-11-x-x-11-x-x-x------|
A|-7-x-x-7-x-x-7-x-x-7-x-x-7-x-x-x-9--x-x-9--x-x-9--x-x-9--x-x-9--x-x-x------|
E|---------------------------------------------------------------------------|

e|---------------------------------------------------------------------------|
B|---------------------------------------------------------------------------|
G|-12-x-x-12-x-x-12-x-x-12-x-x-12-x-x-x-12-x-x-12-x-x-12-x-x-12-x-x-12-x-x-x-|
D|-12-x-x-12-x-x-12-x-x-12-x-x-12-x-x-x-12-x-x-12-x-x-12-x-x-12-x-x-12-x-x-x-|
A|-10-x-x-10-x-x-10-x-x-10-x-x-10-x-x-x-14-x-x-14-x-x-14-x-x-14-x-x-14-x-x-x-|
E|---------------------------------------------------------------------------|

e|---------------------------------------------------------------------------|
B|---------------------------------------------------------------------------|
G|-9-x-x-9-x-x-9-x-x-9-x-x-9-x-x-x-11-x-x-11-x-x-11-x-x-11-x-x-11-x-x-x------|
D|-9-x-x-9-x-x-9-x-x-9-x-x-9-x-x-x-11-x-x-11-x-x-11-x-x-11-x-x-11-x-x-x------|
A|-7-x-x-7-x-x-7-x-x-7-x-x-7-x-x-x-9--x-x-9--x-x-9--x-x-9--x-x-9--x-x-x------|
E|---------------------------------------------------------------------------|

e|---------------------------------------------------------------------------|
B|---------------------------------------------------------------------------|
G|-12-x-x-12-x-x-12-x-x-12-x-x-12-x-x-x-12-x-x-12--------------12\-----------|
D|-12-x-x-12-x-x-12-x-x-12-x-x-12-x-x-x-12-x-x-12--------------12\-----------|
A|-10-x-x-10-x-x-10-x-x-10-x-x-10-x-x-x-14-x-x-14--------------14\-----------|
E|---------------------------------------------------------------------------|

Chorus:
    Em					    D5		     Em
And that's not the world I live in, this is not the live for me
e|-/12-----------------------------------------------------------------------|
B|---------------------12*---------------------------------------------------|
G|------------------------------------------11b~-------------9---------------|
D|---------------------------------------------------------------------------|
A|---------------------------------------------------------------------------|
E|---------------------------------------------------------------------------|

	  	  C5				    D5		
'Cause my world's bigger than your problems and its bigger than me

Em			      	      D5	       Em
It's not the world I live in, this is not the live for me
e|/12------------------------------------------------------------------------|
B|----------------12---------------------------------------------------------|
G|------------------------------------11b~-------------9---------------------|
D|---------------------------------------------------------------------------|
A|---------------------------------------------------------------------------|
E|---------------------------------------------------------------------------|

Guitar1		  C5			   A2 B5
'Cause my world's bigger than your problems    and its bigger than me
Guitar2
e|-----------------------------------------------------14~-------------------|

Outro: Use wah/distorted wah on notes of the A string

e|---------------------------------------------------------------------------|
B|---------------------------------------------------------------------------|
G|---------------------------------------------------------------------------|
D|---------------------------------------------------------------------------|
A|------7-----10-----9-----5-----5h7------7-----10-----9-----5-----5h7-------|
E|--0-0---0-0----0-0---0-0---0-0------0-0---0-0----0-0---0-0---0-0-----------|

Remove wah

Guitar1		  C5			   A2 B5
'Cause my world's bigger than your problems    and its bigger than me
Guitar2
e|----------------------------------------/12--------------------------------|
B|--------------------------------------------12-----------------------------|

Add wah/distorted wah

Guitar1
e|---------------------------------------------------------------------------|
B|---------------------------------------------------------------------------|
G|---------------------------------------------------------------------------|
D|---------------------------------------------------------------------------|
A|------7-----10-----9-----5-----5h7------7-----10-----9-----5-----5h7-------|
E|--0-0---0-0----0-0---0-0---0-0------0-0---0-0----0-0---0-0---0-0-----------|
 |Guitar2
e|-------------------------------------------------------14~-----------------|

e|---------------------------------------------------------------------------|
B|---------------------------------------------------------------------------|
G|---------------------------------------------------------------------------|
D|-----------------------------------------------------------------------5*--|
A|------7-----10-----9-----5-----5h7------7-----10-----9-----5-----5h7---5*--|
E|--0-0---0-0----0-0---0-0---0-0------0-0---0-0----0-0---0-0---0-0-----------|


I got what I could of solo and inserts of a second guitar that are not manditory
to make the song. I just inserted those where I found them and on just the strings
used (which would be the B and e strings). I labeled them as guitar 1&2 when more
than one guitar was in play. When not designated, guitar 1 is default. I'm not going
to promise this is 100%, but I think its a lot closer than whats here already. All
thats left is to listen and match rythme with the song. So enjoy.


| /  slide up
| \  slide down
| h  hammer-on
| p  pull-off
| ~  vibrato
| *  harmonic
| x  Mute note
===============================================================================





Comments


Popular 3 Doors Down tabs & chords
Somewhere In Between 1 Bass Tabs
Here Without You Chords
Here Without You 8 Chords
Down Poison 1 Tabs
Here Without You 4 Tabs
Let Me Go 2 Tabs
Sarah Yellin' Tabs
Sarah Yelling Tabs
When I'm Gone 17 Tabs
Your Arms Feel Like Home 1 Tabs


Song lyrics



↑ Back to top | Tablatures and chords are parodies/interpretations of the original songs. You may use it for private study, scholarship, research or language learning purposes only
© 2014 AZChords.com Contact us | Privacy policy | DMCA | Add/correct tabs | Request tabs | Top 50 tabs