» » »

3 Doors Down, >Loser Tabs (ver.5)

Artists:  A B C D E F G H I J K L M N O P Q R S T U V W X Y Z # 

>Loser Tabs (ver.5)

3 Doors Down Tabs
 Rating:
4/5 (4 votes)
>Loser lessons Tabs too difficult? Try these video lessons and learn fast
1
                Loser

3 Doors Down

By Brian S.

Intro :
this chord is played 
the song
    ^
   ^ ^
  F7#4     intro a few times  Dsus2 
e--2----|-----------0-------------0----------------|
b--2----|--------4----0----2-2------2--------------|
g--3----|---3--3-----------3---3------3------------|
d-------|---4--------------0------------(0)--------|
a-------|---4--------------0-----------------------|
e-------|---2--------------------------------------|

Intro/Verses/Interludes :
e--2--2--2---2~~-----------2--2--2----------------------------|
b--2--2--2---3~~-----------2--2--2----7~~-7-------------------|
g--3--3--3---2~~-----------3--3--3----7~~-7--7/--/9--9--------|
d--4--4--4---0~~-----------4--4--4----7~~-7-------------------|
a--4--4--4---------0~h2----4--4--4----5~~-5--5/--/7--7--------|
e--2--2--2-----------------2--2--2----------------------------|

e--2--2--2---2~--0------0-------2--2--2---2---------|
b--2--2--2---3~----3------3-----2--2--2---3---------|
g--3--3--3---2~------2------0~--3--3--3---2---------|
d--4--4--4----------------------4--4--4---0---------|
a--4--4--4----------------------4--4--4------0h2p0~-|
e--2--2--2----------------------2--2--2-------------|


Chorus:

   P.M.
e--^------------------------------------------------------|
b--^------------------------------------------------------|
g--^---------------------------------------7--7--7--7-----|
d--0---2--2--2--2--2-----4---4--4--4-------7--7--7--7-----|
a--0---2--2--2--2--2-----4---4--4--4-------5--5--5--5-----|
e--0---0--0--0--0--0-----2---2--2--2----------------------|
           Your gettin closer          To pushin me off lifes 

e----------------------|
b----------------------|
g---------9--9--9------|
d------2--9--9--9------|
a------2--7--7--7------|
e------0--0--0--0------|
  little   edge.



Bridge {right before bridge D5 chord rings out}
  (that heavy chord part) :  3x
e---------------------------------------------------------|
b---------------------------------------------------------|
g----------2---5--4---------------------------------------|
d--0---4---2---5--4--2------------------------------------|
a--0---4---0---3--2--2--2--3------------------------------|
e--0---2-------------0--0--1--2~---14/--------------------|

2nd part half time feel
e------------------------------------------|
b------------------------------------------|
g------2--2--5--4--------------------------|
d--4---2--2--5--4--2-----------------------|
a--4---0--0--3--2--2--2--------------------|
e--2---^--^--------0--0--1--2~---14/-------|
        PM

Mandolin Solo :
e---------------------------------------------------------|
b---------------------------------------------------------|
g-----------------------7-7-7-7/9-9-9-9/12-12-12-12-12\0--|
d---7-7-7-7-/9-9-9-9~~~-----------------------------------|
a---------------------------------------------------------|
e---------------------------------------------------------|

e------------------------------------------------------------------------------|
b--------------------------------------------------------------2/5/7-7-7-7-7-7-|
g--13h14p13~-11-11h13p11--9-9h11p9-7-7h9p7~-7-9~~-7-6-2h4p2~~~-----------------|
d------------------------------------------------------------------------------|
a------------------------------------------------------------------------------|
e------------------------------------------------------------------------------|
            
Submit corrections

comments powered by Disqus
↑ Back to top | 3 Doors Down Tabs for >Loser. Lyrics for acoustic guitar and electric guitar. 1 Tablatures and chords are parodies/interpretations of the original songs. You may use it for private study, scholarship, research or language learning purposes only