» » »

>Loser Bass tabs (ver.3)

Artists:  A B C D E F G H I J K L M N O P Q R S T U V W X Y Z # 

>Loser Bass tabs (ver.3)

3 Doors Down
Rating:
0/5 (0 votes)

Hard to play? Try these video lessons and learn fast.
                Recording Artist: 3 Doors Down

Tuning: Standard

Intro: Guitar intro (no bass), 8 measures

G--------------------------------------------------------
D--------------------------------------------------------
A--------------------------------------------------------
E--------------------------------------------------------


Pre-Verse: 
G  --------|------|-------|-------|
D  --------|0---2-|-------|0------|
A  --------|------|-------|----020|
E  \2---222|------|2---222|-------|

G  -------|------|-------|-------|
D  -------|0---2-|-------|0------|
A  -------|------|-------|----020|
E  2---222|------|2---222|-------|

Verse: "Breathin' right away...", 

Repeat 3X
G --------|------|-------|-------|
D --------|0---2-|-------|0------|
A --------|------|-------|----020|
E \2---222|------|2---222|-------|


G --------|------|-------|-------|
D --------|0---2-|-------|0---002|
A --------|------|-------|-------|
E 2----222|------|2---222|-------|

Chorus: "Yea, ..."

G ---------|--------|--------|--------|
D ---------|--------|--------|---9--9-|
A ---------|--------|5----55-|7---77--|
E 0-----000|2--2-222|--------|--------|

G ---------|--------|--------|--------|
D ---------|--------|--------|-----9-9|
A ---------|------02|5----55-|7-----7-|
E 0-----000|2--2-3--|--------|--------|

G ---------|--------|--------|--------|
D ---------|--------|--------|------79|
A ---------|------02|5----55-|7--7-9--|
E 0-----000|2--2-3--|--------|--------|


G ---------|--------|--------|
D ---------|--------|--------|
A ---------|--------|5-------|
E 0-----000|2--2-222|--------|

REPEAT PRE-VERSE AND VERSE

Chorus: "Yea, ..."

G ---------|--------|--------|--------|
D ---------|--------|--------|---9--9-|
A ---------|------02|5----55-|7---77--|
E 0-----000|2--2-3--|--------|--------|

G ---------|--------|--------|--------|
D ---------|--------|--------|-----0--|
A ---------|------02|5----55-|7--7--20|
E 0-----000|2-22-3--|--------|--------|

G ---------|--------|--------|--------|
D ---------|--------|--------|------57|
A ---------|------02|5----55-|7--7-7--|
E 0-----000|2-22-3--|--------|--------|


G ---------|--------|--------|
D ---------|--------|--------|
A ---------|--------|5-------|
E 0-----000|2--2-222|--------|


Solo:
G  ------|------|------|------|
D  ------|------|------|------|
A  --0-32|------|--0-32|------|
E \2-----|0-012-|2-----|0-012-|

G  ------|------|------|------|------|------|
D  ------|------|------|------|------|------|
A  --0-32|------|--0-32|------|--0-32|------|
E  2-----|0-012-|2-----|0-012-|2-----|0-012-|

G  ------|------|------|------|
D  ------|------|------|------|
A  --0-32|------|--0-32|------|
E  2-----|0-012-|2-----|0-----|

Outro:
Repeat 4X
G  -------|------|-------|-------|
D  -------|0---2-|-------|0------|
A  -------|------|-------|----020|
E  2---222|------|2---222|-------|

Repeat Chorus #2 2X
            
Hard to play? Try these video lessons and learn fast. | Correct




comments powered by Disqus
↑ Back to top | Tablatures and chords are parodies/interpretations of the original songs. You may use it for private study, scholarship, research or language learning purposes only