» » »

3 Doors Down, >Loser Tabs (ver.3)

Artists:  A B C D E F G H I J K L M N O P Q R S T U V W X Y Z # 

>Loser Tabs (ver.3)

3 Doors Down Tabs
 Rating:
4/5 (4 votes)
>Loser lessons Tabs too difficult? Try these video lessons and learn fast
                pm=palm mute

-3----0-----------------------------------------------------------------------
-3----3-----------------------------------------------------------------------
-2----2--x4-------------------------------------------------------------------
                                                                              

---------0---------------0---------|-------------------------0----------------
-----------0---------3-----3-------|---------0-----------3-----3---0----------
-----3-------3-----2---2-----2-0-x2|-----3-----3---3---2---2-----0------------
-------4-------4-0-----------------|-------------4---0------------------------
---4-------------------------------|---4--------------------------------------
-2---------------------------------|-2-----2----------------------------------
                                                                              

-2-2-2-2--0----2-2-2-2--0----------------2-2-2-2--0--0---0-----2-2-2-2-0------
-2-2-2-2--2----2-2-2-2--2----------------2-2-2-2--2---3----3---2-2-2-2-3------
-3-3-3-3--3----3-3-3-3--3---777-7/9-9-9--3-3-3-3--3----2-----0-3-3-3-3-2------
-4-4-4-4--0----4-4-4-4--0---xxx-x-x-x-x--4-4-4-4--0------------4-4-4-4-0------
-4-4-4-4-------4-4-4-4------555-5/7-7-7--4-4-4-4---------------4-4-4-4--0h2-0-
-2-2-2-2-------2-2-2-2-------------------2-2-2-2---------------2-2-2-2--------
                                                                              
                      pm..  
------------------7-7---------------------------------------------------------
-2-2-0-4-x-x-4-x--7-7--0-0-2--2-x-x-2-----------------------------------------
-2-2-0-4-x-x-4-x--5-5--0-0-2--2-x-x-2-----------------------------------------
-0-0-0-2-x-x-2-x-------0-0-0--0-x-x-0-----------------------------------------
                                                                              
                               p.m.         pm  
---------------------------|--------------------------------------------------
---------------------------|--------------------------------------------------
-----2-5-4-----------------|----2-2--5-4--------------------------------------
--4--2-5-4-2-2-3-4-----x4--|-4--2-2--5-4--2--0-3-4----------------------------
--4--0-3-2-2-2-3-4---------|-4--0-0--3-2--2--0-3-4----------------------------
--2--------0-0-1-2-14\-----|-2------------0--0-1-2----------------------------
                                                                              

-----|------------------------------------------------------------------------
-----|------------------------------------------------------------------------
-----|------------------------------------------------------------------------
-7h9-|--7-7-7/9-9-9/11-11-12-121212121212-12/14-14-14/16-16-16-16\------------
-----|------------------------------------------------------------------------
-----|------------------------------------------------------------------------
                                                                              

--13h14-13-11-11h13-11-9-9h11-9-7-7h9-7-6-6h7-6--2/4-2-0----------------------
---------------------------------------------------------2/4-4-4-4-4-2-2--4-2-
                                                                              

---------2-2/1-1-2-2/4-4-4-4/6-6-6/7-7-7-7-7-7-7------------------------------
-2/4-4-4----------------------------------------------------------------------
            
Submit corrections

comments powered by Disqus
↑ Back to top | 3 Doors Down Tabs for >Loser. Lyrics for acoustic guitar and electric guitar. Tablatures and chords are parodies/interpretations of the original songs. You may use it for private study, scholarship, research or language learning purposes only