» » »

Let Me Be Myself Tabs (ver.1)

Artists:  A B C D E F G H I J K L M N O P Q R S T U V W X Y Z # 

Let Me Be Myself Tabs (ver.1)

3 Doors Down
Rating:
0/5 (0 votes)

Hard to play? Try these video lessons and learn fast.
                Album:3 Doors Down

For any comments,questions or suggestions,just post a comment or PM me.

Pilipino Rules!!Mabuhay ang Pilipinas,,,haha!!!!

Please visit my band's profile=)


Gtr.Legends:
/\ - slide
h  - hammer-on
~  - let it ring
x  - dead string

Gtr.Tuning:Standard(Normal)

Intro:C,Am,Fm,G
e|-------------------------------------------------------------------------------------|
B|-0h1----0h1----------0h1----0h1--------------0h1----0h1----------0h1-------0h1---3---|
G|-----0------0------------2------2----------------0------0------------0---------0-----|
D|--------------2-------------------2-0---------------------2b-------------------------|
A|-3~-----3~-----------0~-----0~--------3----------------------------------------------|
E|---------------------------------------------1~-----1~-----------3~-----3~-----------|

Verse 1:I guess...
Play Intro

Pre-Chorus:Lately I'm so....
e|-11111-00000-33333----11111-00000-3333---|
B|-11111-11111-33333----11111-11111-3333---|
G|-22222-00000-00000----22222-22222-0000---|
D|-33333-22222-00000----33333-22222-0000---|
A|-33333-33333-22222----33333-00000-2222---|
E|-11111-00000-33333----11111-------3333---|

Chorus:Would you one time...
e|-----------------------------------|
B|-----------------------------------|
G|-55555------------------------5~---|
D|-55555-55555-33333-7777-55555-5~---|
A|-33333-55555-33333-7777-55555-3~---|
E|-------33333-11111-5555-33333------|

Verse 2:
e|-------------------------------------------------------------------------------------|
B|-0h1----0h1---0-1----0h1----0h1--------------0h1----0h1----------0h1-------0h1---3---|
G|-----0------0------------2------2----------------0------0------------0---------0-----|
D|----------------------------------2-0---------------------2b-------------------------|
A|-3~-----3~-----------0~-----0~--------3----------------------------------------------|
E|---------------------------------------------1~-----1~-----------3~-----3~-----------|

Pre-Chorus:

Chorus:Please,would you one time...
e|--------------------------------|
B|--------------------------------|
G|-55555--------------------------| 2x
D|-55555-55555-33333-7777-55555---|
A|-33333-55555-33333-7777-55555---|
E|-------33333-11111-5555-33333---|

Bridge:
Gtr.1
e|------------------------------------------------------------|
B|------------------------------------------------------------|
G|-------------------------5555-4444--------------------------|
D|-77777-33333-55555-55555-5555-4444---77777-33333-55555-5~---|
A|-77777-33333-55555-55555-3333-2222---77777-33333-55555-5~---|
E|-55555-11111-33333-33333-------------55555-11111-33333-3~---|

Gtr.2
e|----------------------------------------------------------|
B|----------------------------------------------------------|
G|-5-7-10-9-9/10\9---5-7-10-9-9/10\9---7-9-7-12-7-555-444---|
D|-x-x--x-x-x--x-x---x-x--x-x-x--x-x---x-x-x-xx-x-xxx-xxx---|
A|-3-5--8-7-7/-8\7---3-5--8-7-7/-8\7---5-7-5-10-5-333-222---|
E|----------------------------------------------------------|

-------------------------------------------------|
-------------------------------------------------|
-5-7-10-9-9/10\9---5-7-10-9-9/10\9---7-9-7-12~---|
-x-x--x-x-x--x-x---x-x--x-x-x--x-x---x-x-x-xx----|
-3-5--8-7-7/-8\7---3-5--8-7-7/-8\7---5-7-5-10~---|
-------------------------------------------------|

After Bridge:Please,would you one time...
e|-------------------------------------------------00-3~---|
B|------1--0h1---------0---0h1h0------------1------11-3~---|
G|----0--0----0------0---0--------------2----2-----00-0~---|
D|---2--------------------------------3---3----3---22-0~---|
A|-3---------------2-----------------3-------------33-2~---|
E|---------------3-----------------1------------------3~---|

Repeat Chorus:

Last Chord:
Gtr.1
e|-----|
B|-----|
G|-5~--|
D|-5~--|
A|-3~--|
E|-----|

Gtr.2
e|-----2-------|
B|-2-------2---|
G|---4---4-----|
D|-------------|
A|-------------|
E|-------------|

End...


Let Me Be Myself Lyrics:

Verse 1:
I guess I just got lost
being someone else.
I tried to kill the pain,
but nothing ever helped.
I left myself behind,
somewhere along the way
hoping to come back around
to find myself someday

Pre-Chorus:
Lately I'm so tired of waiting for you
to say that it's okay.
Tell me please

Chorus:
Would you one time let me be myself
so I can shine
with my own light.
Let me be myself.

Would you let me be myself?

Verse 2:
Cause I'll never find my heart
behind someone else.
I'll never see the light of day
living in this cell.
It's time to make my way
into the world I knew.
And then take back all of these times
that I gave in to you

Repeat Pre-Chorus:

Repeat Chorus:

For a while,
if you don't mind,
let me be myself
so I can shine
with my own light.
Let me be myself.

Bridge:
That's all I ever wanted from this world,
is to let me be me.


Please, would you one time
let me be myself
so I can shine
with my own light.
Let me be myself.


Please, would you one time
let me be myself
so I can shine
with my own light.
Let me be myself.

For a while, if you don't mind
let me be myself
so I can shine,
with my own light.
Let me be myself.

Would you one time
let me be myself
and let me be me.
            
Hard to play? Try these video lessons and learn fast. | Correct




comments powered by Disqus
↑ Back to top | Tablatures and chords are parodies/interpretations of the original songs. You may use it for private study, scholarship, research or language learning purposes only