» » »

Landing In London Tabs (ver.2)

Artists:  A B C D E F G H I J K L M N O P Q R S T U V W X Y Z # 

Landing In London Tabs (ver.2)

3 Doors Down
Rating:
0/5 (0 votes)

Hard to play? Try these video lessons and learn fast.
                Album:	Seventeen Days

Hey! Just completed the tab from ultimae_crow (great work on the verse line!) and took
the Solo from Gedeone so that you now have one complete, nearly correct tab. I only
corrected/completed the chords used in the chorus lines (by listening and watching AOL
Sessions). The Intro + Solo isn't 100% but you get a good idea of how it should be. Cheers!

new Chords:
Em*   0-2-2-4-0-0-|
Dsus* x-5-4-0-3-0-|

INTRO:
e----------------------------------------------------------|
B-------5--4--2h4-0--------5--4--2-2h4--------5--4--2h4-0--|
G----------------------------------------------------------|
D----------------------------------------------------------|
A---0-2----------------0-2----------------0-2--------------|
E-0------------------0------------------0------------------|

VERSE:
e-------------------------------------------------------------------|
B----------------------------------0--------------------------------|
G-------2--------4---------------2---2-------------0-------0--------|
D--------------0---0-----------2-------2-------0h2-------2---2------|
A---0-2------2-------2----2b-0-----------0-0h2---------2-------2----|
E-0--------3-----------3-----------------------------0-----------0--|
I woke up today in London, 	As the plane was touching down

e-----------------------------------------------------------------|
B----------------------------------------------------0------------|
G---------0-------0---------0-------4--------------2---2----------|
D-----0h2-------2---2-------------0---0----------2-------2--------|
A-0h2---------2-------2---2-----2-------2---2b-0-----------0------|
E-----------0-----------0-----3-----------3-----------------------|
and all I could think about was Monday, 	And maybe I'll be back around

e-----------------------------------------------------------|
B-----------------------------------------------------------|
G---------0-------0---------------0-------0---------0-------|
D-----0h2-------2---2---------0h2-------2---2---------------|
A-0h2---------2-------2---0h2---------2-------2---2---------|
E-----------0-----------0-----------0-----------0-----------|

e------------------------------------------------------------------|
B------------------------------------------------------------------|
G----5--4--2------9--11--12--------0---------------0-------0-------|
D--------------0-----------------2---2---------0h2-------2---2-----|
A-3----------------------------2-------2---0h2---------2-------2---|
E----------------------------0-----------0-----------0-----------0-|
If this keeps me away much longer,	I don't know what I will do

e----------------------------------------------------------|
B----------------------------------------------------------|
G----0-----5--4--2-----9--11--12--------0---------------0--|
D-------------------0-----------------2---2---------0h2----|
A-2-----3---------------------------2-------2---0h2--------|
E---------------------------------0-----------0------------|
You've got to understand its a hard life,	That I'm going through

e-------------------|
B-------------------|
G-------0---------0-|
D-----2---2---------|
A---2-------2---2---|
E-0-----------0-----|

		                   C      Am			       Em*
And when the night falls in around me,	    I don't think ill make it through
			          C     Dsus*
I'll use your light to guide the way,	    Cause all I think about is you

INTRO

VERSE:
Well L.A is getting kinda crazy,	And New York is getting kinda cold
I keep my head from getting lazy,       I just cant wait to get back home
And all these days I spend away,	I'll make up for this I swear
I need your love to hold me up,         When its all too much to bear

		                  C       Am			       Em*
And when the night falls in around me,	    I don't think ill make it through
			          C    Dsus*			       Em*
I'll use your light to guide the way,	    Cause all I think about is you

SOLO:
E|--------------|-----------------------|------------------------------------|
B|--------------|-----------8-10--10/12-|------8-10--12-13-12---10-12/13\12--|
G|--------------|----7-9-11-------------|-9-11----------------9--------------|
D|----------7-9-|-10--------------------|------------------------------------|
A|---7-9-10-----|-----------------------|------------------------------------|
E|--------------|-----------------------|------------------------------------|

E|---------------12-12-12-12-|-12-10-8-10-8-7-8-7-5-7-5-0--------------------|
B|-----10--12/13-------------|-----------------------------------------------|
G|---9-----------------------|-----------------------------------------------|
D|---------------------------|-----------------------------------------------|
A|---------------------------|-----------------------------------------------|
E|---------------------------|-----------------------------------------------|

		             C	      Am			  Em*
And all these days I spend away,	I'll make up for this I swear
		             C	    Dsus*			  Em*
I need your love to hold me up,         When its all too much to bear
		                  C       Am			       Em*
And when the night falls in around me,	    I don't think ill make it through
			          C    Dsus*
I'll use your light to guide the way,	    Cause all I think about is you

OUTRO:
e-----------------------------------------------------------------------0---|
B-------5--4--2h4-0--------5--4--2-2h4--------5--4--2h4-0--------0------0---|
G------------------------------------------------------------------0----4---|
D--------------------------------------------------------------------2--2---|
A---0-2----------------0-2----------------0-2----------------0-2--------2---|
E-0------------------0------------------0------------------0------------0---|
            
Hard to play? Try these video lessons and learn fast. | Correct




comments powered by Disqus
↑ Back to top | Tablatures and chords are parodies/interpretations of the original songs. You may use it for private study, scholarship, research or language learning purposes only