» » »

Kryptonite Bass tabs (ver.4)

Artists:  A B C D E F G H I J K L M N O P Q R S T U V W X Y Z # 

Kryptonite Bass tabs (ver.4)

3 Doors Down
Rating:
0/5 (0 votes)

Hard to play? Try these video lessons and learn fast.
                ---------------------------------------------------------------------
			  Kryptonite  - 3 Doors Down
---------------------------------------------------------------------


Tuning:standard

Intro:
G|-----4--7--4---0--------0-------2--4------------|
D|---4---------4--------0-------2-----------------|
A|-2------------------2-------0-------------------|
E|------------------3-----------------------------|

Verse:
G|--------------|--------------|--------------|
D|--------------|--------------|--------------|
A|-2------2-----|-2------2-----|-2------2-----|
E|---3-5----3-5-|---3-5----0-2-|---3-5----0-2-|

Chorus:
G|--------------|--------------|
D|--------------|--------------|
A|-2------2-----|-2------2-----|
E|---3-5----0-2-|---3-5----0-2-|

Solo:
G|--------------|--------------|--------------|
D|--------------|--------------|--------------|
A|-2------2-----|-2------2-----|-2------2-----|
E|---3-5----0-2-|---3-5----0-2-|---3-5----0-2-|

i like to do the guitar intro, so i tabbed it instead
of the bassline. but if u still want to do the bass part its 
the same in the verse as it is in the intro.

| /  slide up
| \  slide down
| h  hammer-on
| p  pull-off
| ~  vibrato
| +  harmonic
| x  Mute note
================================================================
            
Hard to play? Try these video lessons and learn fast. | Correct




comments powered by Disqus
↑ Back to top | Tablatures and chords are parodies/interpretations of the original songs. You may use it for private study, scholarship, research or language learning purposes only