» » »

Kryptonite Tabs (ver.11)

Artists:  A B C D E F G H I J K L M N O P Q R S T U V W X Y Z # 

Kryptonite Tabs (ver.11)

3 Doors Down
Rating:
0/5 (0 votes)

Hard to play? Try these video lessons and learn fast.
                3 Doors Down
The Better Life
Tuning: Standard (E)
Notes: Easy tune, very catchy. In the Refrain, there are chords being played (transcribed) and a 2nd guitar (untranscribed) but the picking is too random, and believe it or not, I have better things to do than sit here for 2 hours tabbing that out. Just stay in that progression and it will sound fine. The solos should be accurate. I am usually against transcribing any leads but I couldn't tell if it was supposed to be a lead or another bridge/outro. So I went ahead and did it. Other than that, this should be perfect, or damn close to it. Put it on your webpage if you want, just give me credit for it. And feel free to send me the contents of your mother's purse. Also e-mail me with corrections or additions, or compliments. If you want to print it, it should turn out ok. I tried to get it nice for printing, and had to re-write it 3 times to do so. (damn word wrap.) Courier New, pt. 10. I think I'm done ranting now, Enjoy. [April 19, 2000]

Intro [Clean] [00:00]-[00:39]
e --------------------------------|--------------------------------|
b -------3----------------------0-|-------3----------------------0-|
g -----4---4---0--------0-----2---|-----4---4---0--------0-----2---|
d ---4-------4--------0-----2-----|---4-------4--------0-----2-----|
a -2----------------2-----0-------|-2----------------2-----0-------|
E ----------------3---------------|----------------3---------------|

e --------------------------------|--------------------------0-----|
b -------3----------------------0-|-------3--------------------0---|
g -----4---4---0--------0-----2---|-----4---4---0--------0-------0-|
d ---4-------4--------0-----2-----|---4-------4--------0-----------|
a -2----------------2-----0-------|-2----------------2-----0-------|
E ----------------3---------------|----------------3---------------|

e --------------------------------|--------------------------------|
b -------3----------------------0-|-------3----------------------0-|
g -----4---4---0--------0-----2---|-----4---4---0--------0-----2---|
d ---4-------4--------0-----2-----|---4-------4--------0-----2-----|
a -2----------------2-----0-------|-2----------------2-----0-------|
E ----------------3---------------|----------------3---------------|

e --------------------------------|--------------------------0-----|
b -------3----------------------0-|-------3--------------------0---|
g -----4---4---0--------0-----2---|-----4---4---0--------0-------0-|
d ---4-------4--------0-----2-----|---4-------4--------0-----------|
a -2----------------2-----0-------|-2----------------2-----0-------|
E ----------------3---------------|----------------3---------------|


Bridge [Clean, Strummed] [00:39]-[00:49]
e ----------------3---3---0----0--|----------------3---3---0----0--|
b -3---3---3---3--3---3---2----2--|-3---3---3---3--3---3---2----2--|
g -4---4---4---4--0---0---2----2--|-4---4---4---4--0---0---2----2--|
d -4---4---4---4--0---0---2----2--|-4---4---4---4--0---0---2----2--|
a -2---2---2---2--2---2---0----0--|-2---2---2---2--2---2---0----0--|
E ----------------3---3-----------|----------------3---3-----------|


Verse [Clean] [00:49]-[01:08]
e --------------------------------|--------------------------0-----|
b -------3----------------------0-|-------3--------------------0---|
g -----4---4---0--------0-----2---|-----4---4---0--------0-------0-|
d ---4-------4--------0-----2-----|---4-------4--------0-----------|
a -2----------------2-----0-------|-2----------------2-----0-------|
E ----------------3---------------|----------------3---------------|

e --------------------------------|--------------------------0-----|
b -------3----------------------0-|-------3--------------------0---|
g -----4---4---0--------0-----2---|-----4---4---0--------0-------0-|
d ---4-------4--------0-----2-----|---4-------4--------0-----------|
a -2----------------2-----0-------|-2----------------2-----0-------|
E ----------------3---------------|----------------3---------------|


Chorus [Distortion] [01:08]-[01:28]
e -------------------------------------------------|
b -------------------------------------------------|
g -------------------------------------------------|
d -4-----4-----4-----4-----------------------------|
a -2-x-x-2-x-x-2-x-x-2-x-x-5-x-x-5-x-x-7-x-x-7-x-x-|
E ---x-x---x-x---x-x---x-x-3-x-x-3-x-x-5-x-x-5-x-x-|

e -------------------------------------------------|
b -------------------------------------------------|
g -------------------------------------------------|
d -4-----4-----4-----4-----------------------------|
a -2-x-x-2-x-x-2-x-x-2-x-x-2-x-x-2-x-x-4-x-x-4-x-x-|
E ---x-x---x-x---x-x---x-x-0-x-x-0-x-x-2-x-x-2-x-x-|

e -------------------------------------------------|
b -------------------------------------------------|
g -------------------------------------------------|
d -4-----4-----4-----4-----------------------------|
a -2-x-x-2-x-x-2-x-x-2-x-x-5-x-x-5-x-x-7-x-x-7-x-x-|
E ---x-x---x-x---x-x---x-x-3-x-x-3-x-x-5-x-x-5-x-x-|

e -------------------------------------------------|
b -------------------------------------------------|
g -------------------------------------------------|
d -4-----4-----4-----4-----------------------------|
a -2-x-x-2-x-x-2-x-x-2-x-x-2-----------4-----------|
E ---x-x---x-x---x-x---x-x-0-----------2-----------|


Bridge [Clean, Strummed] [01:28]-[01:37]
e ----------------3---3---0----0--|----------------3---3---0----0--|
b -3---3---3---3--3---3---2----2--|-3---3---3---3--3---3---2----2--|
g -4---4---4---4--0---0---2----2--|-4---4---4---4--0---0---2----2--|
d -4---4---4---4--0---0---2----2--|-4---4---4---4--0---0---2----2--|
a -2---2---2---2--2---2---0----0--|-2---2---2---2--2---2---0----0--|
E ----------------3---3-----------|----------------3---3-----------|


Verse [Clean] [01:37]-[01:56]
e --------------------------------|--------------------------0-----|
b -------3----------------------0-|-------3--------------------0---|
g -----4---4---0--------0-----2---|-----4---4---0--------0-------0-|
d ---4-------4--------0-----2-----|---4-------4--------0-----------|
a -2----------------2-----0-------|-2----------------2-----0-------|
E ----------------3---------------|----------------3---------------|

e --------------------------------|--------------------------0-----|
b -------3----------------------0-|-------3--------------------0---|
g -----4---4---0--------0-----2---|-----4---4---0--------0-------0-|
d ---4-------4--------0-----2-----|---4-------4--------0-----------|
a -2----------------2-----0-------|-2----------------2-----0-------|
E ----------------3---------------|----------------3---------------|


Chorus [Distortion] [01:57]-[02:16]
e -------------------------------------------------|
b -------------------------------------------------|
g -------------------------------------------------|
d -4-----4-----4-----4-----------------------------|
a -2-x-x-2-x-x-2-x-x-2-x-x-5-x-x-5-x-x-7-x-x-7-x-x-|
E ---x-x---x-x---x-x---x-x-3-x-x-3-x-x-5-x-x-5-x-x-|

e -------------------------------------------------|
b -------------------------------------------------|
g -------------------------------------------------|
d -4-----4-----4-----4-----------------------------|
a -2-x-x-2-x-x-2-x-x-2-x-x-2-x-x-2-x-x-4-x-x-4-x-x-|
E ---x-x---x-x---x-x---x-x-0-x-x-0-x-x-2-x-x-2-x-x-|

e -------------------------------------------------|
b -------------------------------------------------|
g -------------------------------------------------|
d -4-----4-----4-----4-----------------------------|
a -2-x-x-2-x-x-2-x-x-2-x-x-5-x-x-5-x-x-7-x-x-7-x-x-|
E ---x-x---x-x---x-x---x-x-3-x-x-3-x-x-5-x-x-5-x-x-|

e -------------------------------------------------|
b -------------------------------------------------|
g -------------------------------------------------|
d -4-----4-----4-----4-----------------------------|
a -2-x-x-2-x-x-2-x-x-2-x-x-2-----------4-----------|
E ---x-x---x-x---x-x---x-x-0-----------2-----------|


Solo [Distortion] [02:16]-[02:37] 
e ----------------------------------------------------------|
b ----------------------------------------------------------|
g ----------------------------------------------------------|
d ---------------2-----------------------02020202-----------|
a -\-2-4-5-4-5-4---5-4-5-4-0-2-0-2-0-2-0---------45454545-0-|
E ----------------------------------------------------------|

e ------------------------------------------------------------|
b ------------------------------------------------------------|
g ------------------------------------------------------------|
d --------------2-----------------------02020202--------------|
a --2-4-5-4-5-4---5-4-5-4-0-2-0-2-0-2-0---------45454545--0-2-|
E ------------------------------------------------------------|


Refrain [Clean] [02:36]-[03:04]  *see notes
e ------------0-----------3-----------|
b -3----------2-----------3-----------|
g -4----------2-----------0-----------|
d -4----------2-----------0-----------|
a -2----------0-----------2-----------|
E ------------------------3-----------|


Chorus [Distortion] [03:05]-[03:24]
e -------------------------------------------------|
b -------------------------------------------------|
g -------------------------------------------------|
d -4-----4-----4-----4-----------------------------|
a -2-x-x-2-x-x-2-x-x-2-x-x-5-x-x-5-x-x-7-x-x-7-x-x-|
E ---x-x---x-x---x-x---x-x-3-x-x-3-x-x-5-x-x-5-x-x-|

e -------------------------------------------------|
b -------------------------------------------------|
g -------------------------------------------------|
d -4-----4-----4-----4-----------------------------|
a -2-x-x-2-x-x-2-x-x-2-x-x-2-x-x-2-x-x-4-x-x-4-x-x-|
E ---x-x---x-x---x-x---x-x-0-x-x-0-x-x-2-x-x-2-x-x-|

e -------------------------------------------------|
b -------------------------------------------------|
g -------------------------------------------------|
d -4-----4-----4-----4-----------------------------|
a -2-x-x-2-x-x-2-x-x-2-x-x-5-x-x-5-x-x-7-x-x-7-x-x-|
E ---x-x---x-x---x-x---x-x-3-x-x-3-x-x-5-x-x-5-x-x-|

e -------------------------------------------------|
b -------------------------------------------------|
g -------------------------------------------------|
d -4-----4-----4-----4-----------------------------|
a -2-x-x-2-x-x-2-x-x-2-x-x-2-----------4-----------|
E ---x-x---x-x---x-x---x-x-0-----------2-----------|


Solo/Outro [Distortion] [03:24]-[03:43]
e ----------------------------------------------------------|
b ----------------------------------------------------------|
g ----------------------------------------------------------|
d ---------------2-----------------------02020202-----------|
a -\-2-4-5-4-5-4---5-4-5-4-0-2-0-2-0-2-0---------45454545-0-|
E ----------------------------------------------------------|

e ------------------------------------------------------------|
b ------------------------------------------------------------|
g ------------------------------------------------------------|
d --------------4-2---------------------02020202--------------|
a --2-4-5-4-5-4-----4-5-4-0-2-0-2-0-2-0---------45454545--0-2-|
E ------------------------------------------------------------|
            
Hard to play? Try these video lessons and learn fast. | Correct




comments powered by Disqus
↑ Back to top | Tablatures and chords are parodies/interpretations of the original songs. You may use it for private study, scholarship, research or language learning purposes only