» » »

3 Doors Down, Kryptonite Tabs (ver.5)

Artists:  A B C D E F G H I J K L M N O P Q R S T U V W X Y Z # 

Kryptonite Tabs (ver.5)

3 Doors Down Tabs
 Rating:
4/5 (4 votes)
Kryptonite lessons Tabs too difficult? Try these video lessons and learn fast
1
                It’s a easy  song... and it rocks !!!!!!!!!

INTRO          ( riff 1 ) x 3
         Bm                                                        G                                            A 
e------------------------------------------|-------------------------------|------------------------
B---------------------3-------------------|-------------------------------|------------------------
G----------------4----------4------------|--------------------------0----|--------------------2---
D-----------4---------------------4------|---------------------0---------|--------------2---------
A-----2-------------------------------0- |--------------1----------------|---------0--------------
E-----------------------------------------|--------3----------------------|-----0------------------


                        ( riff 2 ) x 1
         Bm                                                        G                                            A
e------------------------------------------|-------------------------------|------------------0-----------
B---------------------3-------------------|-------------------------------|----------------------2-------
G----------------4----------4------------|--------------------------0----|---------------------------2--
D-----------4---------------------4------|---------------------0---------|-------------------------------
A-----2-------------------------------0- |--------------1----------------|---------0---------------------
E-----------------------------------------|--------3----------------------|--------------------------------


VERSE 1 
                            ( riff 1 ) x3
         Bm                                                        G                                            A
e------------------------------------------|-------------------------------|------------------------
B---------------------3-------------------|-------------------------------|------------------------
G----------------4----------4------------|--------------------------0----|--------------------2---
D-----------4---------------------4------|---------------------0---------|--------------2---------
A-----2-------------------------------0- |--------------1----------------|---------0--------------
E-----------------------------------------|--------3----------------------|-----0------------------


                            ( riff 2 ) x 1
         Bm                                                        G                                            A
e------------------------------------------|-------------------------------|------------------0-----------
B---------------------3-------------------|-------------------------------|----------------------2-------
G----------------4----------4------------|--------------------------0----|---------------------------2--
D-----------4---------------------4------|---------------------0---------|-------------------------------
A-----2-------------------------------0- |--------------1----------------|---------0---------------------
E-----------------------------------------|--------3----------------------|--------------------------------






BRIDGE
         Bm                            G                     A
e-----2---------------|--------3-------|-----0-----------
B-----3---------------|--------3-------|-----2-----------
G-----4---------------|--------0-------|-----2-----------
D-----4---------------|--------0-------|-----2-----------
A-----2-------------- |--------1-------|-----0-----------
E-----2---------------|--------3-------|-----0-----------

                     ^
  Play this part twice when he say’s “ I feel there’s nothing I can do “ … 


VERSE 2

                              ( riff 1 ) x 3
         Bm                                                        G                                            A
e------------------------------------------|-------------------------------|------------------------
B---------------------3-------------------|-------------------------------|------------------------
G----------------4----------4------------|--------------------------0----|--------------------2---
D-----------4---------------------4------|---------------------0---------|--------------2---------
A-----2-------------------------------0- |--------------1----------------|---------0--------------
E-----------------------------------------|--------3----------------------|-----0------------------


                            (riff 2 ) x1 
         Bm                                                        G                                            A
e------------------------------------------|-------------------------------|------------------0-----------
B---------------------3-------------------|-------------------------------|----------------------2-------
G----------------4----------4------------|--------------------------0----|---------------------------2--
D-----------4---------------------4------|---------------------0---------|-------------------------------
A-----2-------------------------------0- |--------------1----------------|---------0---------------------
E-----------------------------------------|--------3----------------------|--------------------------------


CHORUS   ( distortion )

                    
         Bm                            G                     A
e------2---------------|--------3-------|-----0-----------
B-----3---------------|--------3-------|-----2-----------
G-----4---------------|--------0-------|-----2-----------
D-----4---------------|--------0-------|-----2-----------
A-----2-------------- |--------1-------|-----0-----------
E-----2---------------|--------3-------|-----0-----------


BRIDGE
         Bm                            G                     A
e------2---------------|--------3-------|-----0-----------
B-----3---------------|--------3-------|-----2-----------
G-----4---------------|--------0-------|-----2-----------
D-----4---------------|--------0-------|-----2-----------
A-----2-------------- |--------1-------|-----0-----------
E-----2---------------|--------3-------|-----0-----------





VERSE 2

                              ( riff 1 ) x 3
         Bm                                                        G                                            A
e------------------------------------------|-------------------------------|------------------------
B---------------------3-------------------|-------------------------------|------------------------
G----------------4----------4------------|--------------------------0----|--------------------2---
D-----------4---------------------4------|---------------------0---------|--------------2---------
A-----2-------------------------------0- |--------------1----------------|---------0--------------
E-----------------------------------------|--------3----------------------|-----0------------------


                            (riff 2 ) x1 
         Bm                                                        G                                            A
e------------------------------------------|-------------------------------|------------------0-----------
B---------------------3-------------------|-------------------------------|----------------------2-------
G----------------4----------4------------|--------------------------0----|---------------------------2--
D-----------4---------------------4------|---------------------0---------|-------------------------------
A-----2-------------------------------0- |--------------1----------------|---------0---------------------
E-----------------------------------------|--------3----------------------|--------------------------------



CHORUS   ( distortion )

                    
         Bm                            G                     A
e-----2---------------|--------3-------|-----0-----------
B-----3---------------|--------3-------|-----2-----------
G-----4---------------|--------0-------|-----2-----------
D-----4---------------|--------0-------|-----2-----------
A-----2-------------- |--------1-------|-----0-----------
E-----2---------------|--------3-------|-----0-----------







SOLO
            
Submit corrections

comments powered by Disqus
↑ Back to top | 3 Doors Down Tabs for Kryptonite. Lyrics for acoustic guitar and electric guitar. 1 Tablatures and chords are parodies/interpretations of the original songs. You may use it for private study, scholarship, research or language learning purposes only