» » »

Kriptonite Tabs (ver.1)

Artists:  A B C D E F G H I J K L M N O P Q R S T U V W X Y Z # 

Kriptonite Tabs (ver.1)

3 Doors Down
Rating:
0/5 (0 votes)

Hard to play? Try these video lessons and learn fast.
                (Inro)
Intro#1
e|------------------------------------------------------------------------------|
B|--------------3-----------------------------------------------------------0---|
G|*---------4--------4---------0--------------------0-----------------2--------*|
D|*-----4-----------------4-------------------0-----------------2--------------*|
A|---2-----------------------------------2----------------0---------------------|
E|----------------------------------3-------------------------------------------|

Intro#2
e|--------------------------------------------------------------0---------------|
B|--------------3-----------------------------------------------------2---------|
G|----------4--------4---------0--------------------0-----------------------2---|
D|------4-----------------4-------------------0---------------------------------|
A|---2-----------------------------------2----------------0---------------------|
E|----------------------------------3-------------------------------------------|
            
Hard to play? Try these video lessons and learn fast. | Correct




comments powered by Disqus
↑ Back to top | Tablatures and chords are parodies/interpretations of the original songs. You may use it for private study, scholarship, research or language learning purposes only