» » »

Its Not My Time Bass tabs (ver.3)

Artists:  A B C D E F G H I J K L M N O P Q R S T U V W X Y Z # 

Its Not My Time Bass tabs (ver.3)

3 Doors Down
Rating:
0/5 (0 votes)

Tabs too difficult? Try these video lessons and learn fast.
                -------------------------------------------------------------------------------
			     IT'S NOT MY TIME - 3 Doors Down
-------------------------------------------------------------------------------


Tuning: Standard



Intro x2 (Very light, barely noticeable):
G|-------------------|
D|-------------------|
A|---------3---------|  
E|----5---------1----|  


Chorus: x1
G|--------------------------------------|
D|--------------------------------------|
A|----------------3-33-33---------------|
E|----5-3-1--11-11-------3-33-333-33----|

G|--------------------------------------|
D|--------------------------------------|
A|----------------3-33-33---------------|
E|----5-3-11--1-11-------3-33-333-33----|


Verse: x4
G|-----------------------------------------------------------------------|
D|-----------------------------------------------------------------------|
A|-----------------------------------------------------------------------|
E|----1-1-1-1-1-1-1-1-1-1-1-1-1-1-1-1-5-5-5-5-5-5-5-5-5-5-5-5-5-5-5-5----|


Chorus: x1
G|--------------------------------------|
D|--------------------------------------|
A|----------------3-33-33---------------|
E|----5-3-1--11-11-------3-33-333-33----|

G|--------------------------------------|
D|--------------------------------------|
A|----------------3-33-33---------------|
E|----5-3-11--1-11-------3-33-333-33----|


Verse: x5
G|---------------------------------------------------------------------|
D|---------------------------------------------------------------------|
A|---------------------------------------------------------------------|
E|--1-1-1-1-1-1-1-1-1-1-1-1-1-1-1-1-5-5-5-5-5-5-5-5-5-5-5-5-5-5-5-5----|


Chorus: x2
G|--------------------------------------|
D|--------------------------------------|
A|----------------3-33-33---------------|
E|----5-3-1--11-11-------3-33-333-33----|

G|--------------------------------------|
D|--------------------------------------|
A|----------------3-33-33---------------|
E|----5-3-11--1-11-------3-33-333-33----|


Solo/Bridge: x4
G|------------------------------------------|
D|------------------------------------------|
A|-----------3-33-333-----------------------|
E|----11-111----------3-33-3333-33-3-333----|


Chorus:
G|----------------------------------|
D|----------------------------------|
A|------------3-33-33---------------| x1
E|----11--1-11-------3-33-333-33----|

G|--------------------------------------|
D|--------------------------------------|
A|----------------3-33-33---------------| x3
E|----5-3-11--1-11-------3-33-333-33----|


Bridge: x2
G|------------------------------------------|
D|------------------------------------------|
A|-----------3-33-333-----------------------|
E|----11-111----------3-33-3333-33-3-333----|


Verse x1: 
G|-------------------------------------------------------------------|
D|-------------------------------------------------------------------|
A|-------------------------------------------------------------------|
E|--1-1-1-1-1-1-1-1-1-1-1-1-1-1-1-1-5-5-5-5-5-5-5-5-5-5-5-5-5-5-5-5--|


Outro x1:
G|---------------------------------------|
D|---------------------------------------|
A|---------------------------------------| x1
E|--1-1-1-1-1-1-1-1-1-1-1-1-1-1-1-1-5~~--|




| /  slide up
| \  slide down
| h  hammer-on
| p  pull-off
| ~  vibrato
| +  harmonic
| x  Mute note
==========================================================================
            
Tabs too difficult? Try these video lessons and learn fast.


comments powered by Disqus
↑ Back to top | Tablatures and chords are parodies/interpretations of the original songs. You may use it for private study, scholarship, research or language learning purposes only