>
 >
Its Not My Time 5

Its Not My Time 5 Guitar Tabs

3 Doors Down - Its Not My Time 5 chords, tabs, tablatures, lyrics

Guitar lessons | Add/correct | Request | Top 50 tabs Artists:  A B C D E F G H I J K L M N O P Q R S T U V W X Y Z 0-9

Its Not My Time 5 Guitar Tabs – 3 Doors Down

CD, Sheet music, Poster

Do you like Its Not My Time 5? Share with your friends now
Bass TabsBass Tabs v2Bass Tabs v3Bass Tabs v4ChordsChords v2Chords v3TabsTabs v2Tabs v3Tabs v4Tabs v5Ukulele
HI! this is what i think of the acoustic version of It's Not My Time...tell me whatchu 
me)RATE IT!
(standard tuning: EADGBe)
Intro:

E|--------------------------------------------------------------|
B|----0h1---0--0----------0--0---0h1---0--0---------------------|
G|-------2---0--0--0h2-2---2--------2---0--0--0h2--2-2----------|
D|--------2---2--2----3-3-------- ---2---2--2-----3-3-----------|
A|---------0--------------------------0-------------------------|
E|--------------------------------------------------------------|
            (x4)
E|----------|------------|------------------|
B|----------|------------|------------------|
G|----------|----5-------|------------------|
D|--7--5--3-|--5-----5---|------------------|
A|--7--5--3-|--3-----5---|------------------|
E|--5--3--1-|--------3---|------------------|

Verse 1:    (x2)                             After (2x)
E|---------------------------------------|----------------|
B|------------0h1---1p0-------0h1---1p0--|---1------------|
G|----0h2----2---2-----2-----2---2-----2-|----2-----------|
D|---3------2-----2-----2---2-----2-----2|-----2----------|
A|--3------0--------------0--------------|------0---------|
E|-1-------------------------------------|----------------|

Chorus       (x4)                                   (repeat chorus agian)
E|----------|----------------------------------------------|
B|----------|----------------------------------------------|
G|----------|----5-----------------------------------------|
D|--7--5--3-|--5----5--------------------------------------|
A|--7--5--3-|--3----5--------------------------------------|
E|--5--3--1-|-------3--------------------------------------|

Solo: working on it...

Verse 2:
(play Verse 1)

(Chorus)

Bridge:
(Play Chorus)

(Chorus 2x)

(Bridge)

Outro:
(Play Verse)

Lyrics

Verse 1
Looking back before beginning this
and how life was
just you and me and love and all of our friends
livin' life like an ocean
now the currents slowly pulling me down
it's getting harder to breathe
it won't be too long and i'll be going under
can you save from this

Chorus
Cause it's not my time
i'm not goin'
theres a fear in me
it's not showin'
this could be the end of me
and everthing i've known
oh! but i won't go

(solo)

Verse 2
i looked ahead to all the plans that we made
and the dreams that we had
i'm in a world that tries to take 'em away
oh, but i'm taking them back
cause all this time i just been too blind understand
what should matter to me
my friend this life we live
it's not what we had
it's what we believe

Chorus
and it's not my time
i'm not goin theres a fear in me
it's not showing
this could be the end of me
and everything i've known
but it's not my time
i'm not goin theres a will in me
now i know that
this could be the end of me
and everthing i've known
oh! but i won't go,oh no!
I won't go

Bridge
There might be more than you believe
There might be more than you can see

Chorus
but it's not my time
i'm not goin theres a fear in me
it's not showing
this could be the end of me
and everything i've known
but it's not my time
i'm not goin theres a will in me
and now it's gonna show
this could be the end of me
and everything i've known

Bridge
There might be more than you believe
There might be more than you can see

but i won't go
no i won't...go down...yeah

(don't forget to rate it...thanks!)





Comments


Popular 3 Doors Down tabs & chords
Be Like That Bass Tabs
Going Down In Flames Bass Tabs
Kryponite Bass Tabs
Kryptonite 5 Chords
Away From The Sun 1 Tabs
Heaven Tabs
Kryptonite (Intro) Tabs
Life Of My Own 3 Tabs
When Im Gone 2 Tabs
She Dont Want The World Ukulele


Song lyrics



↑ Back to top | Tablatures and chords are parodies/interpretations of the original songs. You may use it for private study, scholarship, research or language learning purposes only
© 2014 AZChords.com Contact us | Privacy policy | DMCA | Add/correct tabs | Request tabs | Top 50 tabs