» » »

If I Could Be Like That Bass tabs (ver.2)

Artists:  A B C D E F G H I J K L M N O P Q R S T U V W X Y Z # 

If I Could Be Like That Bass tabs (ver.2)

3 Doors Down
Rating:
0/5 (0 votes)

Hard to play? Try these video lessons and learn fast.
                ----------------------------------------------------------------------------
		IF I COULD BE LIKE THAT- 3 Doors Down
----------------------------------------------------------------------------


Tuning: standard
*NOTE* The timing on this song is a little different. It's best played with
your fingers and not a pick. Just listen to it while you play this tab and 
it will all come together.

Verse 1:
G|--------------------------------|
D|--------------------------------|
A|----5~-----3~-------5~-----3~---|
E|-3~-----0~-------3~-----0~------|

Chorus:
G|----------------------------------------------|
D|-----12-10-9-10-------------------------------|
A|-/10---------------12-10-9-10------------3-3--|
E|----------------10-------------0-7-5-3-2------|

G|--------------------------------------------|
D|----12-10-9-10------------------------------|
A|-10---------------12-10-9-10------------3-2-|
E|---------------10-------------0-7-5-3-2-----|

G|-----------0h2-----------------------------------------|
D|-------0h2------------5---5----------------------------|
A|-0--0-----------3--3----3------------------------3h5---|
E|------------------------------3--3--0--3--3--3h5-------|

G|-----------0h2---------------------------------------|
D|-------0h2------------5---5--------------------------|
A|-0--0-----------3--3----3----------------------------|
E|----------------------------3--3--3/7-8--------------|

Verse 2:
G|------------------------------------------------------|
D|------------------------------------------------------|
A|----------3---2---5-----3--2---------5-----5-----3----|
E|-3--2--0-------3-----0------3--2--0-----3-----0-------|


Chorus:
G|----------------------------------------------|
D|-----12-10-9-10-------------------------------|
A|--10---------------12-10-9-10------------3-3--|
E|----------------10-------------0-7-5-3-2------|

G|--------------------------------------------|
D|----12-10-9-10------------------------------|
A|-10---------------12-10-9-10------------3-2-|
E|---------------10-------------0-7-5-3-2-----|

G|-----------0h2------------------------------------------|
D|-------0h2------------5---5-----------------------------|
A|-0--0-----------3--3----3-------------------------3h5---|
E|-------------------------------3--3--0--3--3--3h5-------|

G|-----------0h2------------------------------------------|
D|-------0h2------------5---5-----------------------------|
A|-0--0-----------3--3----3-------------------------------|
E|-------------------------------3--3--3/7-8--------------|

Verse 3:
G|--------------------------------------------------------|
D|--------------------------------------------------------|
A|----5-----3------------3333333--------------------------|
E|-3-----0-------3--2--0----------------------------------|

Bridge: X4
G|--------------------------------------------------------|
D|--------------------------------------------------------|
A|---------------555-555-555-5/777-777-777-7/333-333-333-3|
E|-333-333-333-3------------------------------------------|

Outro:
G|--------------------------------------------------------|
D|-----------0h2------------------0h2---------------------|
A|-------0h2------3--3--------0h2------3--3---------------|
E|-0--0-----------------0--0------------------------------|

G|--------------------------------------------------------|
D|-----------0h2------------------------------------------|
A|-------0h2------3--3------------------------------------|
E|-0--0-----------------3---------------------------------|

~:let ring
/:slide
            
Hard to play? Try these video lessons and learn fast. | Correct




comments powered by Disqus
↑ Back to top | Tablatures and chords are parodies/interpretations of the original songs. You may use it for private study, scholarship, research or language learning purposes only