» » »

3 Doors Down, Here Without You Tabs (ver.5)

Artists:  A B C D E F G H I J K L M N O P Q R S T U V W X Y Z # 

Here Without You Tabs (ver.5)

3 Doors Down Tabs
Rating:
0/5 (0 votes)
Hard to play? Try these video lessons and learn fast.
                (Intro)
3 Doors Down- Here Without You

capo at 1st (notes relative to capo)

Intro
e----------------------------------------------------------
B-------1-----0-----0--1--------------------------------0--
G-----2---2-----2--------2--------------------------0------
D---2-------2-----2--------2-----------3----------0---0-------
A-0--------------------------------0-3---3-----------------
E--------------------------------1---------3-3------------
						     -A hundred
Main verse					     -A thousand 
e-/----------------------------------------------------------------
B-*------1-----0-----0--1-----------------------0-----1-----0---1/3--
G-/----2---2-----2--------2-------------------0---0-----0------------
D-/--2-------2-----2--------2---------------0-------0-----0----------
A-*0-----------------------------------------------------------------
E-/---------------------------------------3--------------------------
   Days have made me older      since the last time that I saw your pretty face.
   Lives have made me colder	 and I don’t think I can look at this the same.
e--------------------------------------------------------------/---
B-------1-----0-----0--1--------------------------------0------*---
G-----2---2-----2--------2--------------------------0----------/--
D---2-------2-----2--------2-----------3----------0---0--------/----
A-0--------------------------------0-3---3---------------------*----
E--------------------------------1---------3-3-----------------/----

this is just the intro/part of the main verse.  i'm still working on the rest of the song
            

comments powered by Disqus
↑ Back to top | 3 Doors Down Tabs for Here Without You. Lyrics for acoustic guitar and electric guitar. Tablatures and chords are parodies/interpretations of the original songs. You may use it for private study, scholarship, research or language learning purposes only