» » »

Here Without You Tabs (ver.4)

Artists:  A B C D E F G H I J K L M N O P Q R S T U V W X Y Z # 

Here Without You Tabs (ver.4)

3 Doors Down
Rating:
0/5 (0 votes)

Hard to play? Try these video lessons and learn fast.
                (Full)
Here Without You
3 Doors Down
------------------

Intro pattern
   Am              F       G       
E|----------------------------------|
B|------1--0--0-1---------------0---|
G|-----2-2--2--2-2-----2------0--0--|
D|----2---2--2----2---3-3------0--0-|
A|--0--------------0-3---3---2------|
E|------------------1-------3-------|

Verse pattern
   Am		   G		   Am		    F	     G
E|-----------------------------------------------------------------|
B|----1--0--0-1--------0--1--0-1/3-----1--0--0-1---------------0---|
G|---2-2--2--2-2------0-0--0--0-------2-2--2--2-2-----2------0--0--|
D|--2---2--2----2----0---0--0--------2---2--2----2---3-3------0--0-|
A|-0--------------0-2--------------0--------------0-3---3---2------|
E|-----------------3-------------------------------1-------3-------|

VERSE 1
A hundred days have made me older, 
Since the last time that I saw your pretty face.
A thousand lies have made me colder, 
And I don't think I can look at this the same,
And all the miles that separate,
They disappear now when I'm dreamin' of your face.
      
Chorus pattern
   C			G/B		 Am			F	G
E|----------------1-0-----------3--1-0-----------------------------------------|
B|----1-3--1--1------3-1-----0---------3-----1--3--1-3-1-0-1-----1--------0----|
G|---0-0-0--0--0-----------0--0------------2--2--2--2-----------2-2-----0--0---|
D|--------2--2------------0-0--0--0-0-0---2-2--2--2------------3---3-----0--0--|
A|--3--------------------2---------------0--------------------3--------2-------|
E|-----------------------------------------------------------1-------3---------|

Chorus
I'm here without you baby, but you're still on my lonely mind 
I think about you baby and I dream about you all the time
I'm here without you baby, but you're still with me in my dreams,
And tonight, there's only you and me  yeah.

(play verse riff once)

Verse 2
The miles just keep rollin', as the people leave their way to say hello
I've heard this life is overrated, but I hope that it gets better as we go 

CHORUS (end on Am instead of C)

Bridge	
Am		  C		   G				  F
Everything I know and anywhere I go it gets hard but it won't take away my love 
And when the last one falls when it's all said and done
It gets hard but it won't take, away, my love, woah oh Woah    wo-oh

(play chorus riff and then play Chorus again to finish)

Enjoy this one, it's an amazing song!!
            
Hard to play? Try these video lessons and learn fast. | Correct




comments powered by Disqus
↑ Back to top | Tablatures and chords are parodies/interpretations of the original songs. You may use it for private study, scholarship, research or language learning purposes only