» » »

3 Doors Down, Here Without You Tabs (ver.3)

Artists:  A B C D E F G H I J K L M N O P Q R S T U V W X Y Z # 

Here Without You Tabs (ver.3)

3 Doors Down Tabs
Rating:
0/5 (0 votes)
Here Without You lessons Tabs too difficult? Try these video lessons and learn fast
                3 Doors Down ? Here Without You

Standard tuning, capo first fret

OR

Eb-Ab-Db-Gb-Bb-Eb, capo second fret. Easier to finger this way.

Regardless, I?ve written this tab as though the capo was the actual nut, so 0 is an open string, 1 is the first fret AFTER the capo, 2 is the second fret after the capo, and so on. 

I would suggest that you finger pick this until you really get the hang of it. Listen to the song to pick up your timing, the rhythm is kind of weird.


~ = vibrato (there?s a lot in this song, but they?re all really short)
/   = slide	        h = hammer on	      p = pull off

   Intro/Verse Figure

||-------------------------------------------------------------------------------
||----------------1-------0-------0-----1----------------------------------------
||------------2----------------------------2------0------------------------------
||--------2-----------2-------2------2--------2------------------------3--------
||---0--------------------------------------------------0----------0h3---3--0----
||----------------------------------------------------------3---1----------------

----------0------------------1-----0-----0-----1--------------------0------1-----
--------0---0-------------2-----------------------2-----0---------0---0------0---
------0-------0--------2--------2-----2-----2--------2----------0-------0-----0--
------------------0--------------------------------------------------------------
-3~~--------------------------------------------------------3~~------------------

--------------||
-0-----1/3~~--||
----0---------||
--------------||
--------------||
--------------||

   Chorus Figure

||--------------0--------1p0----------------------3-----1---0---------------
||-------3--------1----------3p1p0----------0-------0------------3---0h1----
||-----0---0--------0---------------------0---0-------0---0----0---0--------
||---2-------2--------2-----------------0-------0---------------------------
||-3------------------------------------------------------------------------
||----------------------------------3~~-------------------------------------

-------------------------------------------------------||
-------1-----3p1---3p1--------------------------0------||
-----2---2-------2----2-----------------------0?--0----||
---2-------2------------2---------3---------0-------0--||
-0----------------------------0h3---3-0----------------||
----------------------------1-----------3~~------------||

Play the verse figure once for the intro, three times the first verse, and twice the second verse. Play the chorus figure twice each chorus. The interlude is below; listen to the song, the strumming has a really odd rhythm. 


Am  x02210   [play chords in this order]
C   x30210
G   320033
F   003211    The second F is held a little longer, then go into the chorus. I haven?t                                                       
C               worked it out yet, but I think it may be in chords this time. 
G
F
            
Submit corrections

comments powered by Disqus
↑ Back to top | 3 Doors Down Tabs for Here Without You. Lyrics for acoustic guitar and electric guitar. Tablatures and chords are parodies/interpretations of the original songs. You may use it for private study, scholarship, research or language learning purposes only