» » »

3 Doors Down, Here Without You Tabs (ver.2)

Artists:  A B C D E F G H I J K L M N O P Q R S T U V W X Y Z # 

Here Without You Tabs (ver.2)

3 Doors Down Tabs
 Rating:
4/5 (4 votes)
Here Without You lessons Tabs too difficult? Try these video lessons and learn fast
1
                I've seen the tabs for this but there were a few notes missing here and there, so here's how I play it. Please let me know if you see any mistakes or anything. Enjoy!

Either tune your guitar up 1/2 step or capo the first fret. All the fret numbers I put are relative to the capo.

(Slight variations during the different verses

e-------------------------------------------------------|
B------1-----0-----0-----1------------------------1-0---|
G----2---2-----2-----2-----2----------------------------|
D--2-------2-----2-----------2---------3----------------|
A-0---------------------------------0-3---3-----3-------|
E------------------------------3-1---------3-3----------|

e-------------------------------------------------|
B-------1-----0-----0---1---------------0-1-0-1/3-|
G-----2---2-----2-----2---2-----------0-----------|
D---2-------2-----2---------2-------0-------------|
A-0---------------------------0---2---------------|
E-------------------------------3-----------------|

Chorus

C7                         G
I'm here without you baby

                                   Am
But you're still on my lonely mind


I think about you baby

Fm           G
And I dream about you all the time

C7                        G
I'm here without you baby

                                  Am
But you're still with me in my dreams

Fm                  G
And tonight, it'a only you and me



Interlude

Am                 C
Everything I know

                  G
And anywhere I go

                            Fm
It gets hard but it won't take away my love

Am                           C
And when the last one falls

                         G    
When it's all said and done

                           Fm
It gets hard but it won't take away my love


Right after interlude, go back and play the chorus straight
through a few times. 

Hope you enjoy it! Its an awesome song on an awesome album :-)
            
Submit corrections

comments powered by Disqus
↑ Back to top | 3 Doors Down Tabs for Here Without You. Lyrics for acoustic guitar and electric guitar. 1 Tablatures and chords are parodies/interpretations of the original songs. You may use it for private study, scholarship, research or language learning purposes only