» » »

3 Doors Down, Here Without U Tabs (ver.1)

Artists:  A B C D E F G H I J K L M N O P Q R S T U V W X Y Z # 

Here Without U Tabs (ver.1)

3 Doors Down Tabs
Rating:
0/5 (0 votes)
Here Without U lessons Tabs too difficult? Try these video lessons and learn fast
                thats some of the song im not sure if its perfect but its 
sounds good to me......enjoy!!

intro:
e:-------------------------------------------------------------
b:-------2----1----1---2------------------------------1--------
g:-----3---3----3----3---3-----------3------------1-----1------
d:---3------3----3--------3--------4---4--------1---1-----1----
a:-1------------------------1----4-------4---------------------
e:-----------------------------2-----------1--4----------------



e:-------------------------------------------------------------
b:-------2----1---1---2---------------1---2---1---2/4----------
g:-----3---3----3---3---3-----------1---1---1---1--------------
d:---3------3----3-------3--------1----------------------------
a:-1-----------------------1-----------------------------------
e:---------------------------1--4------------------------------

enjoy!!
            

comments powered by Disqus
↑ Back to top | 3 Doors Down Tabs for Here Without U. Lyrics for acoustic guitar and electric guitar. Tablatures and chords are parodies/interpretations of the original songs. You may use it for private study, scholarship, research or language learning purposes only