» » »

Heaven Bass tabs (ver.1)

Artists:  A B C D E F G H I J K L M N O P Q R S T U V W X Y Z # 

Heaven Bass tabs (ver.1)

3 Doors Down
Rating:
0/5 (0 votes)

Tabs too difficult? Try these video lessons and learn fast.
                -------------------------------------------------------------------------------
                             Heaven - 3 Doors Down
-------------------------------------------------------------------------------


Tuning: Standard E,A,D,G

  Intro (Play Softly) 
G|-------------------------|
D|-------------------------|
A|4--4--------4--4---------|
E|-------4-----------2--4--|


  Verse (Play Softly)
G|-------------------------------------------------|
D|-------------------------------------------------|
A|4--4--------4--4-----------4--4------------------|
E|-------4-----------2--4-----------4----2----4----|


  Chorus 
G|-------------------------------|
D|-------------------------------|  x3
A|4-4-4-4-4-4-4-4----------------|
E|----------------4-4-4-4-4-4-4-4|

G|-------------------------------|
D|-------------------------------|
A|-------------------------------|
E|2-2-2-2-2-2-2-2-4-4-4-4-4-4-4-4|

G|--------|
D|--------|
A|4--4----|
E|-------4|


  Verse 2
G|-----------------------------------------------------------|
D|-----------------------------------------------------------|
A|4--4--------4--4-----------4--4----------------------------|
E|-------4-----------2--4-----------4----2----4-4-4-4-4-4-4-4|


  Chorus 2 
G|-------------------------------|
D|-------------------------------|  x3
A|4-4-4-4-4-4-4-4----------------|
E|----------------4-4-4-4-4-4-4-4|

G|-------------------------------|
D|-------------------------------|
A|-------------------------------|
E|2-2-2-2-2-2-2-2-4-4-4-4-4-4-4-4|


  Bridge
G|-------------------------------|
D|-------------------------------|
A|-------------------------------|
E|2-2-2-2-2-2-2-2-4-4-4-4-4-4-4-4|

G|-------------------------------|
D|-------------------------------|
A|-------------------------------|
E|2-2-2-2-2-2-2-2-6-6-6-4-4-4-4-4|

G|-------------------------------|
D|-------------------------------|
A|-------------------------------|
E|2-2-2-2-2-2-2-2-4-4-4-4-4-4-4-4|

G|-------------------------------|
D|-------------------------------|
A|-------------------------------|
E|2-2-2-2-2-2-2-2-4-4-4-4-4-4-4-4|


  Chorus 3 
G|-------------------------------|
D|-------------------------------|
A|4------------------------------|
E|----------------4--------------|

G|-------------------------------|
D|-------------------------------|
A|4-4-4-4-4-4-4-4----------------|
E|----------------4-4-4-4-4-4-4-4|

G|-------------------------------|
D|-------------------------------|
A|4-4-4-4-4-4-4-4----------------|
E|----------------4-4-4-4-4-4-4-4|

G|-------------------------------|
D|-------------------------------|
A|-------------------------------|
E|2-2-2-2-2-2-2-2-4-4-4-4-4-4-4-4|


  Outro
G|-------------------------------|
D|-------------------------------|
A|4-4-4-4-4-4-4-4----------------|
E|----------------4-4-4-4-4-4-4-4|

G|-------------------------------|
D|-------------------------------|
A|-------------------------------|
E|2-2-2-2-2-2-2-2-4-4-4-4-4-4-4-4|

G|-----|
D|-----|
A|4----|
E|-----|


Really Easy, Enjoy :)


| /  slide up
| \  slide down
| h  hammer-on
| p  pull-off
| ~  vibrato
| +  harmonic
| x  Mute note
===============================================================================
            
Tabs too difficult? Try these video lessons and learn fast.




comments powered by Disqus
↑ Back to top | Tablatures and chords are parodies/interpretations of the original songs. You may use it for private study, scholarship, research or language learning purposes only