>
 >
Days Gone Bye

Days Gone Bye Guitar Tabs

3 Doors Down - Days Gone Bye chords, tabs, tablatures, lyrics

Guitar lessons | Add/correct | Request | Top 50 tabs Artists:  A B C D E F G H I J K L M N O P Q R S T U V W X Y Z 0-9

Days Gone Bye Guitar Tabs – 3 Doors Down

CD, Sheet music, Poster

Do you like Days Gone Bye? Share with your friends now
Tabs
|------------------15------14--------------------------|
G# |-----12----14--------------------------------------|
E  |---------------------------------------------------|
B  |---------------------------------------------------|
F# |---------------------------------------------------|
B  |---------------------------------------------------|

C# |-------------------------------------------------|
G# |-------------------------------------------------|
E  |-------------------------------------------------|
B  |-2-x--2-x--3-x--3--------------------------------|
F# |-0-x--3-x--5-x--2--------------------------------|
B  |-------------------------------------------------|


C# |-------------------------------------------------|
G# |-------------------------------------------------|
E  |--------x-7-x-6----------------------------------|
B  |--4-x-6-x-5-x-4----------------------------------|
F# |--2-x-4------------------------------------------|
B  |-------------------------------------------------|


C# |-------------------------------------------------|
G# |-------------------------------------------------|
E  |-------------------------------------------------|
B  |-------------------------------------------------|
F# |-----5/8-8-8\3-3-3-3-3---------------------------|
B  |-------------------------------------------------|


C# |-------------------------------------------------|
G# |-------------------------------------------------|
E  |-------------------------------------------------|
B  |--------3-3----5-57-7---------------------------|
F# |---5-5-------------------------------------------|
B  |-------------------------------------------------|

            |--------------P.M-------------------------|
C# |---------------------------------------------------|
G# |---------------------------------------------------|
E  |---------------------------------------------------|
B  |--10-----0-0-0-0--1-1-1--0-0-0--6-6-6--5-5-5-5-----|
F# |--10-----0-0-0-0--1-1-1--0-0-0--6-6-6--5-5-5-5-----|
B  |--10-----0-0-0-0-1-1-1--0-0-0--6-6-6--5-5-5-5-----|

             P.M            P.M         P.M
C# |-------------------------------------------------|
G# |-------------------------------------------------|
E  |-------------------------------------------------|
B  |--13p12---------13p12-0-0-0-0-4p3-0-0-0-0-8p7----|
F# |--13p12-0-0-0-0-13p12-0-0-0-0-4p3-0-0-0-0-8p7----|
B  |--13p12-0-0-0-0-13p12-0-0-0-0-4p3-0-0-0-0-8p7----|


C# |----------------------------------|
G# |----------------------------------|
E  |----------------------------------|
B  |--8-------7------0----------------|
F# |--8-------7------0----------------|
B  |--8-------7------0----------------|


C# |---------------------------------------|
G# |---------------------------------------|
E  |--14--12--7------14--12--7--10---------|
B  |---------------------------------------|
F# |--12--10--5------12--10--5--8----------|
B  |---------------------------------------|

C# |-------------------------------------------------|
G# |-------------------------------------------------|
E  |-------------------------------------------------|
B  |--13p12---------13p12-0-0-0-0--------------------|
F# |--13p12-0-0-0-0-13p12-0-0-0-0--------------------|
B  |--13p12-0-0-0-0-13p12-0-0-0-0--------------------|

C# |---------------------------------------|
G# |---------------------------------------|
E  |---------------------------------------|
B  |--0----8---7---5-----------------------|
F# |--0----8---7---5-----------------------|
B  |--0----8---7---5-----------------------|


C# |---------------------------------------------|
G# |---------------------------------------------|
E  |--14--15--14--12----14--15--14--12--10-------|
B  |---------------------------------------------|
F# |--12--13--12--10----12--13--12--10--8--------|
B  |---------------------------------------------|





Comments


Popular 3 Doors Down tabs & chords
Let Me Be Myself Bass Tabs
Changes Chords
Story Of A Girl Chords
Train Chords
Be Like That Tabs
Behind Those Eyes 1 Tabs
Landing In London 3 Tabs
Right Where I Belong 2 Tabs
The Champion In Me Tabs
When Im Gone 3 Tabs


Song lyrics



↑ Back to top | Tablatures and chords are parodies/interpretations of the original songs. You may use it for private study, scholarship, research or language learning purposes only
© 2014 AZChords.com Contact us | Privacy policy | DMCA | Add/correct tabs | Request tabs | Top 50 tabs