» » »

3 Doors Down, Citizen Soldier Tabs (ver.4)

Artists:  A B C D E F G H I J K L M N O P Q R S T U V W X Y Z # 

Citizen Soldier Tabs (ver.4)

3 Doors Down Tabs
Rating:
0/5 (0 votes)
Citizen Soldier lessons Tabs too difficult? Try these video lessons and learn fast
                CITIZEN SOLDIER


Tuning: Drop C

INTRO: All notes Palm Muted 
D|-----------------------------------------------------------------|
A|-----------------------------------------------------------------|
F|-----------------------------------------------------------------|
C|-10h121212121212-10h1212121212121212-10h121212121212101010101010-| (x4)
G|-----------------------------------------------------------------|
C|-----------------------------------------------------------------|

INTRO Part 2: No Palm Mute
D---------------------------------------------|
A---------------------------------------------|
F---------------------------------------------|
C---------------------------------------------|
G-10h12-12-10h12-12-12b-10h12-12-10h12-12-/15-|
C-0-----0--0-----0--0---0-----0--0-----0------|

D-------------------------------------|
A-------------------------------------|
F-------------------------------------|
C-------------------------------------| (x2)
G-10h12-12-10h12-12-12b---8-8-7-8-7/8-|
C-0-----0--0-----0--0-----------------|

VERSE:
D---------------------------------------------|
A---------------------------------------------|
F---------------------------------------------|
C---------------------------------------------|
G-10h12-12-10h12-12-12b-10h12-12-10h12-12-/15-|
C-0-----0--0-----0--0---0-----0--0-----0------|

D-------------------------------------|
A-------------------------------------|
F-------------------------------------|
C-------------------------------------| (x2)
G-10h12-12-10h12-12-12b---8-8-7-8-7/8-|
C-0-----0--0-----0--0-----------------|

PRE-CHORUS: Clean
D-------------------------------------------|
A-3-33-3-----------------3-33-3-------------|
F-2-22-2-----3-3-3-2-2-2-2-22-2-----3-3-3-2-|
C-0-00-0-----3-3-3-2-2-2-0-00-0-----3-3-3-2-|
G-0-00-0-----1-1-1-0-0-0-0-00-0-----1-1-1-0-|
C-0-00-0-----------------0-00-0-------------|
             You need..  Sisters..      Right here..

CHORUS: Distortion (Play along with Guitar 2)
D------------------------------------------------------|
A------------------------------------------------------|
F---------------3-3-3-5-5-5----------------------------|
C-0-0-2/3-0-0---3-3-3-5-5-5-0-0-2/3-0-0---8-7-5-10-3-7-| (x2)
G-0-0-2/3-0-0---1-1-1-3-3-3-0-0-2/3-0-0---8-7-5-10-3-7-|
C-0-0-2/3-0-0---------------0-0-2/3-0-0---8-7-5-10-3-7-|

Guitar 2
D------------------------------------------------------|
A------------------------------------------------------|
F-----------------------------------------15141217-1214|
C-----------------------------------------X-X-X-X--X-X-| (x2)
G-----------------------------------------13121015-1012|
C------------------------------------------------------|

AFTER THIS PART, ALL PRETTY MUCH THE SAME

(Repeat Verse)

(Repeat Chorus)

BRIDGE: Repeat INTRO Part 1

(Repeat Pre-Chorus)

(Repeat Chorus 2 TIMES)

END

Please rate!
            

comments powered by Disqus
↑ Back to top | 3 Doors Down Tabs for Citizen Soldier. Lyrics for acoustic guitar and electric guitar. Tablatures and chords are parodies/interpretations of the original songs. You may use it for private study, scholarship, research or language learning purposes only