» » »

Be Somebody Tabs (ver.1)

Artists:  A B C D E F G H I J K L M N O P Q R S T U V W X Y Z # 

Be Somebody Tabs (ver.1)

3 Doors Down
Rating:
5/5 (2 votes)

Hard to play? Try these video lessons and learn fast.
                Standard Tuning.
I got the intro, verse, and bridge, but I'm still working on the chorus, but I
know the chords are C, G, and Am.

Intro/Verse
e|------------------------------------------|
B|--0h1----0h1------------1-----------------|
G|------2------2--------0---------0---------|
D|---------------2----2---------0-----------|
A|--0------0--------3---------2-------------|
E|--------------------------3---------------|

e|------------------------------------------|
B|--0h1----0h1----------1-------------------|
G|------2------2------0----------0----------|Let the 3rd fret on the A
D|------------------2----------0------------|string ring a little.
A|--0------0------3----------2--------------|
E|-------------------------3----------------|

Pre-Chorus

e|-------------------------|
B|-----------------1-(1)---| Repeat this however many times needed.
G|-----2-(2)------2-----2--|
D|----3----3-----2-------2-|
A|---3------3---0----------|
E|--1----------------------|

Chorus
Like I said, chords are C, then G, then Am.

Bridge

e|----------|
B|----------|
G|--5-5-5---| Repeat this all throughout the bridge.
D|--5-5-5-7-| I use an down, up, down, up pattern for these four strokes.
A|--3-3-3-7-|
E|--------5-|

Enjoy
            
Hard to play? Try these video lessons and learn fast. | Correct




comments powered by Disqus
↑ Back to top | Tablatures and chords are parodies/interpretations of the original songs. You may use it for private study, scholarship, research or language learning purposes only