» » »

3 Doors Down, Behind Those Eyes Tabs (ver.2)

Artists:  A B C D E F G H I J K L M N O P Q R S T U V W X Y Z # 

Behind Those Eyes Tabs (ver.2)

3 Doors Down Tabs
Rating:
5/5 (2 votes)
Behind Those Eyes lessons Tabs too difficult? Try these video lessons and learn fast
                -------------------------------------------------------------------------------
                        Behind Those Eyes - 3 Doors Down
-------------------------------------------------------------------------------

Tuning: EADGBe

INTRO:
e|----------------------------------------------------------------------|
B|---3-----1----1h3---0h1-----------------------------------------------|
G|-----2------------------2------------0-------------0------------------|
D|-0-----0----0-----0-------3--3p0-0h2---2-------0h2---2----------0-----|
A|-----------------------------------------3--3----------3--3-0h2---2---|
E|--------------------------------------------------------------------3-|

e|-----------------------0-1------------------------------------|
B|---3-----1----1h3----3------3-0-----1-------------------------|
G|-----2--------------------------0h2---2---2p0-----------------|
D|-0-----0----0-----0---------------------3-----3/5~---2h3p2----|
A|-----------------------------------------------------------3--|
E|--------------------------------------------------------------|<2x>
Ohh yeah...


VERSE 1:
e|----------------------------------------------------------------------|
B|---3-----1----1h3---0h1-----------------------------------------------|
G|-----2------------------2------------0-------------0------------------|
D|-0-----0----0-----0-------3--3p0-0h2---2-------0h2---2----------0-----|
A|-----------------------------------------3--3----------3--3-0h2---2---|
E|--------------------------------------------------------------------3-|
You said i had something to say, then you got that look in your eye
Ive been down the wrong road tonight, & I swear ill never go there again

e|-----------------------0-1------------------------------------|
B|---3-----1----1h3----3------3-0-----1-------------------------|
G|-----2--------------------------0h2---2---2p0-----------------|
D|-0-----0----0-----0---------------------3-----3/5~---2h3p2----|
A|-----------------------------------------------------------3--|
E|--------------------------------------------------------------|
There is something youve got to know, you said it as you started to cry...
Ive seen this face once before, & I dont think i can do this again...


CHORUS:
e|-----------------------------------------------------|
B|-----------------------------------------------------|
G|--7-7---------------------------------7-7------------|
D|--7-7----/10--10-10----5-5------------7-7------------|
A|--5-5----/8---10-10----5-5--------3/5-5-5----7-8-7---|
E|--------------8--8-----3-3----3h5------------------8-|
Theres something I cant see
Something living in the way you smile
Behind those eyes you lie

e|------------------------------------------|
B|------------------------------------------|
G|--7-7---------------------------------7-7-|
D|--7-7----/10--10-10----5-5------------7-7-|
A|--5-5----/8---10-10----5-5--------3/5-5-5-|
E|--------------8--8-----3-3----3h5---------|
And theres nothing i can say
Cause im never gonna change your mind
Behind those eyes you hide...


VERSE 2 (Do Intro or Verse 1):
As you turned to walk away
I saw another look in your eye
And even though it hurt like it did
I couldnt let the spirit by...

You say that your sorry
And you say that it hurts you the same
Is there something here to believe
Or is it just another part of the game?

>REPEAT CHORUS


ADLIB:

Rythm Guitar
e|-----------------------------------------------|
B|-----------------------------------------------|
G|--7----5---------------------------------------|
D|--7----5----5-x-x-5-x-x-5-x-x-5-x-x-5-x-x-5-5--|
A|--5----3----5-x-x-5-x-x-5-x-x-5-x-x-5-x-x-5-5--|
E|------------3-x-x-3-x-x-3-x-x-3-x-x-3-x-x-3-3--|<2x>

Lead Guitar
e|-------------------------------------------------------------------|
B|----------------------------------------15-------15----------------|
G|--7----5----12-10-12b14-x-12b14-x-12/14----12/14----x-12h14p12-10--|
D|--7----5-----------------------------------------------------------|
A|--5----3-----------------------------------------------------------|
E|-------------------------------------------------------------------|

e|------------------------------------------------------------------|
B|-------------+17b18r17~--15-15~--17-15-15~--17-15-17-17b18r17-15--|
G|--12-12b14~-------------------------------------------------------|
D|------------------------------------------------------------------|
A|------------------------------------------------------------------|
E|------------------------------------------------------------------|


INTERLUDE:
e|-------0-----------------------------------0-----------------0---------|
B|-----3---(3)---(3)-------1---------------3---(3)---(3)-----3---(3)--3--|
G|---2--------(2)--------0---(0)---(0)---2--------(2)------2--------2----|
D|-0-------------------2--------(2)----0-----------------0---------------|
A|-------------------3---------------------------------------------------|
E|-----------------------------------------------------------------------|
Ohh yeah...

e|-------0--------------------------------------------------------|
B|-----3---(3)--3-------1--------------0-------1p0---3------------|
G|---2--------2-------0---(0)--0---------0---0-----0---(0)---(0)--|
D|-0----------------2--------2-------0----(0)-------------(0)-----|
A|----------------3----------------2------------------------------|
E|-------------------------------3--------------------------------|
Ooooooo...ohh woah...

e|-------0----------------------------------0-----------------0--------|
B|-----3---3----(3)-------1---------------3----3----(3)-----3---3---3--|
G|---2-------(2)--------0---(0)---(0)---2--------(2)------2-------2----|
D|-0------------------2--------(2)----0-----------------0--------------|
A|------------------3--------------------------------------------------|
E|---------------------------------------------------------------------|
Behind those eyes you lie

e|-------0-----------------------------------|
B|-----3---(3)---(3)-------1-----------------|
G|---2--------(2)--------0---(0)---(0)-------|
D|-0-------------------2--------(2)-----(0)--|
A|-------------------3------------------(2)--|
E|---------------------------------------3---|
Behind those eyes you hide...

e|--------------------------------------------------------------------|
B|---3-----1----1h3---0h1---------------------------------------------|
G|-----2------------------2------------0-------------0----------------|
D|-0-----0----0-----0-------3--3p0-0h2---2-------0h2---2-----7-8-7----|
A|-----------------------------------------3--3----------3---------8--|
E|--------------------------------------------------------------------|


>REPEAT CHORUS
Theres something I cant see
Something living in the way you smile
Behind those eyes you lie
And theres nothing i can say
Cause im never gonna change your mind
Behind those eyes you hide


OUTRO (Do Chorus Chords):
Theres nothing i can say
Cause im never gonna change your mind
Behind those eyes you hide
e|---------------------|
B|---------------------|
G|--7--5------------7--|
D|--7--5--7--5---3--7--|
A|--5--3--7--5---3--5--|
E|--------5--3---1-----|
Behind those eyes you lie...

yan tapos na...
Please rate!!!
Thanks..\m/

_jhon 05

| /  slide up
| \  slide down
| h  hammer-on
| p  pull-off
| ~  vibrato
| +  harmonic
| x  Mute note
===============================================================================
            

comments powered by Disqus
↑ Back to top | 3 Doors Down Tabs for Behind Those Eyes. Lyrics for acoustic guitar and electric guitar. Tablatures and chords are parodies/interpretations of the original songs. You may use it for private study, scholarship, research or language learning purposes only