>
 >
Back To Me

Back To Me Guitar Tabs

3 Doors Down - Back To Me chords, tabs, tablatures, lyrics

Guitar lessons | Add/correct | Request | Top 50 tabs Artists:  A B C D E F G H I J K L M N O P Q R S T U V W X Y Z 0-9

Back To Me Guitar Tabs – 3 Doors Down

CD, Sheet music, Poster

Do you like Back To Me? Share with your friends now
ChordsChords v2TabsUkulele
Tuning: Standard

This is 100% correct I presume.

INTRO:

E-------------------------------------------------------------|
B------1h0----3h0----0h1----1h0-----1h0---3h0-----------------|
G-----2------0------0------0-------2-----0-------0h2----2h0---|
D----2------0------2------2-------2-----0-------3------3------|
A---0-------------3------3-------0-------------3------3-------|
E----------3---------------------------3------1------1--------|


VERSE:
E---------------------------------------------------------------------|
B----------1h0-----3h0----0h1----1h0------1h0-----3h0-----------------|
G---------2-------0------0------0--------2-------0-------0h2----2h0---|
D--------2-------0------2------2--------2-------0-------3------3------|
A-------0--------------3------3--------0---------------3------3-------|
E---------------3------------------------------3------1------1--------|
 I have poured out my heart            Laid it right here for you


E-------------------------------0-------0----------3---------|
B--------1h0---3h0----0h1----1-----1------1-----3---3--------|
G-------2-----0------0------0-------0------0-----0---0-------|
D------2-----0------2------2---------------------------------|
A-----0------------3------3----------------------------------|
E-----------3---------------------------------3--------------|
 I've tried so hard             That's the best that I can do


E---------------------------------------------------------|
B------1h0----3h0-----0h1---------------------------------|
G-----2------0-------0--------0h2----0h2----0h2----0h2----|
D----2------0-------2--------3------3------3------3-------|
A---0--------------3--------3------3------3------3--------|
E----------3---------------1------1------1------1---------|
 Please understand I am not who I was


CHORUS:
E-----------------------------------------|
B-----------------------------------------|
G----5-5-5-5-5-5--------------------------|
D----5-5-5-5-5-5-----------5-5-5-5-5-5----|
A----3-3-3-3-3-3-----------5-5-5-5-5-5----|
E--------------------------3-3-3-3-3-3----|
 You used to be all that I had    


E-----------------------------------------|
B-----------------------------------------|
G--2-2-2-2--------------------------------|
D--2-2-2-2-----5-5-5-5----3-3-3-3-3-3-----|
A--0-0-0-0-----5-5-5-5----3-3-3-3-3-3-----|
E--------------3-3-3-3----1-1-1-1-1-1-----|
 Now your just not what I need       


E-----------------------------------------|
B-----------------------------------------|
G-5-5-5-5-5-5-----------------------------|
D-5-5-5-5-5-5----------5-5-5-5-5-5--------|
A-3-3-3-3-3-3----------5-5-5-5-5-5--------|
E----------------------3-3-3-3-3-3--------|
  I've got to get over you and I know


E----------------------------------------|
B----------------------------------------|
G-2-2-2-2----------------5---------------|
D-2-2-2-2----5-5-5-5-----5---------------|
A-0-0-0-0----5-5-5-5-----3---------------|
E------------3-3-3-3---------------------|
  Then I can get back to me 

VERSE:
E--------------------------------------------------------------|
B----1h0---3h0----0h1----1h0------1h0---3h0--------------------|
G---2-----0------0------0--------2-----0--------0h2------2h0---|
D--2-----0------2------2--------2-----0--------3--------3------|
A-0------------3------3--------0--------------3--------3-------|
E-------3----------------------------3-------1--------1--------|
  Tears forget                 That's more than I can do


E---------------------------0------0-----------3------------|
B----1h0---3h0----0h1----1-----1-----1------3----3----------|
G---2-----0------0------0-------0-----0------0----0---------|
D--2-----0------2------2------------------------------------|
A-0------------3------3-------------------------------------|
E-------3----------------------------------3----------------|
  They don't wash away      All the things we've been through


E-------------------------------------------------------|
B----1h0----3h0-----0h1---------------------------------|
G---2------0-------0--------0h2----0h2----0h2----0h2----|
D--2------0-------2--------3------3------3------3-------|
A-0--------------3--------3------3------3------3--------|
E--------3---------------1------1------1------1---------|
  I've put behind me my share of the shame

E-------------------------------------------------------|
B----1h0----3h0-----0h1---------------------------------|
G---2------0-------0--------0h2----0h2----0h2----0h2----|
D--2------0-------2--------3------3------3------3-------|
A-0--------------3--------3------3------3------3--------|
E--------3---------------1------1------1------1---------|
  We could call villains but it's all in vain


CHORUS:
E-----------------------------------------|
B-----------------------------------------|
G----5-5-5-5-5-5--------------------------|
D----5-5-5-5-5-5-----------5-5-5-5-5-5----|
A----3-3-3-3-3-3-----------5-5-5-5-5-5----|
E--------------------------3-3-3-3-3-3----|
 You used to be all that I had    


E-----------------------------------------|
B-----------------------------------------|
G--2-2-2-2--------------------------------|
D--2-2-2-2-----5-5-5-5----3-3-3-3-3-3-----|
A--0-0-0-0-----5-5-5-5----3-3-3-3-3-3-----|
E--------------3-3-3-3----1-1-1-1-1-1-----|
 Now your just not what I need       


E-----------------------------------------|
B-----------------------------------------|
G-5-5-5-5-5-5-----------------------------|
D-5-5-5-5-5-5----------5-5-5-5-5-5--------|
A-3-3-3-3-3-3----------5-5-5-5-5-5--------|
E----------------------3-3-3-3-3-3--------|
  I've got to get over you and I know


E----------------------------------------|
B----------------------------------------|
G-2-2-2-2----------------5---------------|
D-2-2-2-2----5-5-5-5-----5---------------|
A-0-0-0-0----5-5-5-5-----3---------------|
E------------3-3-3-3---------------------|
  Then I can get back to me 


E----1----0------------------------------------------------|
B---1-1-------1---------1---0---------------3--1-0h1h0-----|
G--2---2-------0-------0--------0----------0-0--------0----|
D-3-----3---3---------2-------------------0---0-0----------|
A--------------------3----3---3----------------------------|
E----------------------------------------3-----------------|
  All of my life I've waited, hoping     Wanting


E--------------------------------|
B----3--1-0h1h0------------------|
G---0-0--------0-----------------|
D--0---0-0-----------------------|
A--------------------------------|
E-3------------------------------|
  You to see me the way that I am


E----1----0------------------------------------------------|
B---1-1-------1---------1---0---------------3--1-0h1h0-----|
G--2---2-------0-------0--------0----------0-0--------0----|
D-3-----3---3---------2-------------------0---0-0----------|
A--------------------3----3---3----------------------------|
E----------------------------------------3-----------------|
  But now I know          I'm not alone


E--------------------------------|
B----3--1-0h1h0------------------|
G---0-0--------0-----------------|
D--0---0-0-----------------------|
A--------------------------------|
E-3------------------------------|
  Someone understands


SOLO:

Guitar 1
E--------------------------------------------------------------------------|
B-/13--12--13--12--15--13-12--------------12--13---------------10-12-------|
G---------------------------12------/14----------10------10-12-------------|
D--------------------------------------------------------------------------|
A--------------------------------------------------------------------------|
E--------------------------------------------------------------------------|

E-------------------------------------------------/13------12--------------|
B-/13--12--13--12--15--13--15--13----------12--13-------------15-13-12-----|
G----------------------------------12-14-------------------------------12--|
D--------------------------------------------------------------------------|
A--------------------------------------------------------------------------|
E--------------------------------------------------------------------------|


Guitar 2
E-----------------------------------------|
B-----------------------------------------|
G----5-5-5-5-5-5--------------------------|
D----5-5-5-5-5-5-----------5-5-5-5-5-5----|
A----3-3-3-3-3-3-----------5-5-5-5-5-5----|
E--------------------------3-3-3-3-3-3----|

E-----------------------------------------|
B-----------------------------------------|
G--2-2-2-2--------------------------------|
D--2-2-2-2-----5-5-5-5----3-3-3-3-3-3-----|
A--0-0-0-0-----5-5-5-5----3-3-3-3-3-3-----|
E--------------3-3-3-3----1-1-1-1-1-1-----|

E-----------------------------------------|
B-----------------------------------------|
G----5-5-5-5-5-5--------------------------|
D----5-5-5-5-5-5-----------5-5-5-5-5-5----|
A----3-3-3-3-3-3-----------5-5-5-5-5-5----|
E--------------------------3-3-3-3-3-3----|

E----------------------------------------------------|
B----------------------------------------------------|
G--2-2-2-2-------------------------------------------|
D--2-2-2-2-----5-5-5-5----3-3-3-3-3-3-3-3-3-3-3-3----|
A--0-0-0-0-----5-5-5-5----3-3-3-3-3-3-3-3-3-3-3-3----|
E--------------3-3-3-3----1-1-1-1-1-1-1-1-1-1-1-1----|


CHORUS:
E------------------------------------------|
B------------------------------------------|
G-5-5-5-5-5-5------------------------------|
D-5-5-5-5-5-5---------------5-5-5-5-5-5----|
A-3-3-3-3-3-3---------------5-5-5-5-5-5----|
E---------------------------3-3-3-3-3-3----|
  You used to be all that I had


E----------------------------------------|
B----------------------------------------|
G-2-2-2-2--------------------------------|
D-2-2-2-2-----5-5-5-5----3-3-3-3-3-3-----|
A-0-0-0-0-----5-5-5-5----3-3-3-3-3-3-----|
E-------------3-3-3-3----1-1-1-1-1-1-----|
  Now your just not what I need


E-----------------------------------------|
B-----------------------------------------|
G-5-5-5-5-5-5-----------------------------|
D-5-5-5-5-5-5----------5-5-5-5-5-5--------|
A-3-3-3-3-3-3----------5-5-5-5-5-5--------|
E----------------------3-3-3-3-3-3--------|
  I've got to get over you and I know

E---------------------------------------------------------|
B---------------------------------------------------------|
G-2-2-2-2----------------5-5-5-5-5-5-5-5-5-5-5-5----------|
D-2-2-2-2----5-5-5-5-----5-5-5-5-5-5-5-5-5-5-5-5----------|
A-0-0-0-0----5-5-5-5-----3-3-3-3-3-3-3-3-3-3-3-3----------|
E------------3-3-3-3--------------------------------------|
  Then I can get back to me        You've got to know that


E------------------------------------------|
B------------------------------------------|
G-5-5-5-5-5-5------------------------------|
D-5-5-5-5-5-5---------------5-5-5-5-5-5----|
A-3-3-3-3-3-3---------------5-5-5-5-5-5----|
E---------------------------3-3-3-3-3-3----|
  You used to be all that I had


E----------------------------------------|
B----------------------------------------|
G-2-2-2-2--------------------------------|
D-2-2-2-2-----5-5-5-5----3-3-3-3-3-3-----|
A-0-0-0-0-----5-5-5-5----3-3-3-3-3-3-----|
E-------------3-3-3-3----1-1-1-1-1-1-----|
  Now your just not what I need


E-----------------------------------------|
B-----------------------------------------|
G-5-5-5-5-5-5-----------------------------|
D-5-5-5-5-5-5----------5-5-5-5-5-5--------|
A-3-3-3-3-3-3----------5-5-5-5-5-5--------|
E----------------------3-3-3-3-3-3--------|
  I've got to get over you and I know


E----------------------------------------|
B----------------------------------------|
G-2-2-2-2--------------------------------|
D-2-2-2-2-----5-5-5-5----3-3-3-3-3-3-----|
A-0-0-0-0-----5-5-5-5----3-3-3-3-3-3-----|
E-------------3-3-3-3----1-1-1-1-1-1-----|
  Then I can get back to me


E----------------------------------------|
B----------------------------------------|
G-2-2-2-2--------------------------------|
D-2-2-2-2-----5-5-5-5----3-3-3-3-3-3-----|
A-0-0-0-0-----5-5-5-5----3-3-3-3-3-3-----|
E-------------3-3-3-3----1-1-1-1-1-1-----|
  Then I can get back to me


E----------------------------------------|
B----------------------------------------|
G-2-2-2-2----------------5---------------|
D-2-2-2-2----5-5-5-5-----5---------------|
A-0-0-0-0----5-5-5-5-----3---------------|
E------------3-3-3-3---------------------|
  Then I can get back to me 


ENJOY! AND THANKS!

If you see anything that I should add, liet me know via email.


Keys:
/ = slide
h = hammer-on





Comments


Popular 3 Doors Down tabs & chords
By My Side 1 Bass Tabs
Duck And Run 3 Bass Tabs
Let Me Go 3 Chords
Time Of My Life Chords
By My Side 1 Tabs
Citizen Soldier Tabs
Duck And Run 5 Tabs
Real Life Tabs
When I M Gone 2 Tabs
When Im Gone Tabs


Song lyrics



↑ Back to top | Tablatures and chords are parodies/interpretations of the original songs. You may use it for private study, scholarship, research or language learning purposes only
© 2014 AZChords.com Contact us | Privacy policy | DMCA | Add/correct tabs | Request tabs | Top 50 tabs