» » »

3 Doors Down, Away From The Sun Tabs (ver.7)

Artists:  A B C D E F G H I J K L M N O P Q R S T U V W X Y Z # 

Away From The Sun Tabs (ver.7)

3 Doors Down Tabs
 Rating:
3.3/5 (43 votes)
Away From The Sun lessons Tabs too difficult? Try these video lessons and learn fast
1
                This is a little different interpretation of the ver1, little tuned-up, re-writed to make it
easier for reading, corrected lyrics and added finger placement (i think it's right).
Remember: I'm not the author of this tab so don't send me any thanks.
Send them to the original author if you know who he is :)

 

Standard tuning [E,a,d,g,b,e]

**Play with pick. Soundz better**

Intro & Verse (Clean):
e|-----------------|-----------------0|-----------------|----------------|
b|-1--1--1-1--0h1--|-1--1--1-1--0h1-3-|-1--1--1-1--0h1--|-3-1-0---3-1-0-1|
g|--2--2---------0-|--0--0------------|--2--2---------0-|-------0--------|  X3
d|3--3--3-2--2----2|------------------|3--3--3-2--2----2|----------------|  
a|-----------------|3--3--3-2--2------|-----------------|----------------|
E|-----------------|------------------|-----------------|3-------3-------|

Entering chorus 3rd time:

e|----|
b|----|
g|----|
d|-XX-|
a|-XX-|
E|-XX-|

Chorus (Distortion):

e|----------------|--------------------|
b|----------------|--------------------|
g|----------------|--------------------|
d|3---------8--8--|3~------------------|
a|3--------8--8---|3~------7-8-10-5~-3-|
E|1-------8--7--8-|1~------------------|
  ^
!HOLD! 

e|----------------|-------------------|
b|----------------|-------------------|
g|----------------|-------------------|
d|3---------8--8--|3~-----------------|
a|3--------8--8---|3~------2-3-5------|
E|1-------8--7--8-|1~------------3~---|
  ^
!HOLD!
 

Interlude:

e|----------------|----------------|----------------|--------8/10-10-10\8-8/10|
b|----------------|----------------|----------------|--------8/10-10-10\8-8/10|
g|----------------|----------------|----------------|-------------------------|
d|7-7-7-7-7-7-7-7-|5-5-5-5-5-5-5-5-|3-3-3-3-3-3-3-3-|5------------------------|
a|7-7-7-7-7-7-7-7-|5-5-5-5-5-5-5-5-|3-3-3-3-3-3-3-3-|5------------------------|
E|5-5-5-5-5-5-5-5-|3-3-3-3-3-3-3-3-|1-1-1-1-1-1-1-1-|3------------------------|
                                                     ^
                                                  END ON THIS LAST TIME
         

Here is the finger positioning I use to pick the song:

   x03210
C  x32010
   x20010 
   320010



              
Song Structure:                                 


Verse X3
Chorus X1
Verse X3
Chorus X2
Interlude X1
Verse X2
Chorus X2
Interlude X1


Lyrics:

Verse:

It's down to this 
I've got to make this life make sense 
Can anyone tell what I've done 
I miss the life 
I miss the colours of the world 
Can anyone tell where I am 

Chorus:

'Cause now again I've found myself 
So far down, away from the sun 
That shines into the darkest place 
I'm so far down, away from the sun again 
Away from the sun again 

Verse:

I'm over this 
I'm tired of living in the dark 
Can anyone see me down here 
The feeling's gone 
There's nothing left to lift me up 
Back into the world I've known

Chorus: 

'Cause now again I've found myself 
So far down, away from the sun 
That shines into the darkest place 
I'm so far down, away from the sun 
That shines to light the way for me
To find my way back into the arms 
That care about the ones like me 
I'm so far down, away from the sun again 

Verse:

It's down to this 
I've got to make this life make sense 
And now I can't tell what I've done 

Verse:

And now again I've found myself 
So far down, away from the sun 
That shines to light the way for me

Chorus:

'Cause now again I've found myself 
So far down, away from the sun 
That shines into the darkest place 
I'm so far down, away from the sun 
That shines to light the way for me
To find my way back into the arms 
That care about the ones like me 
I'm so far down, away from the sun again
I'm gone

*****************************
***Enjoy this awesome song***
******Your comments to:******
*****************************
            
Submit corrections

comments powered by Disqus
↑ Back to top | 3 Doors Down Tabs for Away From The Sun. Lyrics for acoustic guitar and electric guitar. 1 Tablatures and chords are parodies/interpretations of the original songs. You may use it for private study, scholarship, research or language learning purposes only